PrimaNota.ru - самый крупный в мире бесплатный архив песенных текстов, аккордов, табулатур и нот


Nightwish - Bare Grace Misery - аккорды и текст, таба, бас-таба, видео

Регистрация Запомнить меня
Войти через:  Facebook Google Twitter Vk Yandex Mail.ru

Nightwish - Bare Grace Misery - аккорды и текст, таба, бас-таба, видео

Печатать
Просмотров: 336
Авторы музыки: Tuomas Holopainen, Emppu Vuorinen
Авторы текста: Tuomas Holopainen
Bare Grace Misery
Nightwish
Bass
Tab by T.P
 
[G----------------------------------------------
D----------------------------------------------
A-------------------------5--5-3---------------
E--------------------5--5---------5--5-5--5-5--

-------------------------------------------------------------
-------------------------------------------------------------
----------------------------------------5--5-3---------------
--1--1-1-1-1-1-1-1-1-1-1-1-1-1-1---5--5---------5--5-5--5-5--

----------------------------------------------------------------------------
----------------------------------------------------------------------------
----------------------------------------0-----------------------------------
--0------------------1-------------------------------------1----------------

---------------------------------------------------------------
---------------------------------------------------------------
-------------------------------0-0-0-0-0-0-0-0-0-0-0-0-0-0-0-0-
--3--3-3--3-3--3-3--3-3--3-3-----------------------------------

--------------------------------------------------------------------
--------------------------------------------------------------------
--3-3-3-3-3-3-3-3-------------------0-0-0-0-0-0-0-0-0-0-0-0-0-0-0-0-
------------------3-3-3-3-3-3-3-3-----------------------------------

--------------------------------------------------------------------
--------------------------------------------------------------------
------------------5-5-5-5-5-5-5-5---0-0-0-0-0-0-0-0-0-0-0-0-0-0-0-0-
--0-0-0-0-0-0-0-0---------------------------------------------------

--------------------------------------------------------------------
--------------------------------------------------------------------
--3-3-3-3-3-3-3-3-------------------0-0-0-0-0-0-0-0-0-0-0-0-0-0-0-0-
------------------3-3-3-3-3-3-3-3-----------------------------------

-------------------------------------------------------------------------
-------------------------------------------------------------------------
------------------5-5-5-5-5-5-5-5---0------------------3-----------------
--0-0-0-0-0-0-0-0-----------------------------------------------3--------

-------------------------------------------------------------------
-------------------------------------------------------------------
--0---------------------------5---------------5--5-3---------------
---------------------0-------------------5--5---------5--5-5--5-5--

-------------------------------------------------------------
-------------------------------------------------------------
----------------------------------------5--5-3---------------
--1--1-1-1-1-1-1-1-1-1-1-1-1-1-1---5--5---------5--5-5--5-5--

----------------------------------------------------------------------------
----------------------------------------------------------------------------
----------------------------------------0-----------------------------------
--0------------------1-------------------------------------1----------------

------------------------------------------------------------------
------------------------------------------------------------------
-------------------------------0----------------------------------
--3--3-3--3-3--3-3--3-3--3-3--------------------------------------

--------------------------------------------------------------------
--------------------------------------------------------------------
--0-0-0-0-0-0-0-0-0-0-0-0-0-0-0-0---3-3-3-3-3-3-3-3-3-3-3-3-3-3-3-3-
--------------------------------------------------------------------

--------------------------------------------------------------------
--------------------------------------------------------------------
--0-0-0-0-0-0-0-0-0-0-0-0-0-0-0-0---3-3-3-3-3-3-3-3-3-3-3-3-3-3-3-3-
--------------------------------------------------------------------

--------------------------------------------------------------------
--------------------------------------------------------------------
--0-0-0-0-0-0-0-0-0-0-0-0-0-0-0-0---3-3-3-3-3-3-3-3-3-3-3-3-3-3-3-3-
--------------------------------------------------------------------

--------------------------------------------------------------------
--------------------------------------------------------------------
--0-0-0-0-0-0-0-0-0-0-0-0-0-0-0-0---3-3-3-3-3-3-3-3-3-3-3-3-3-3-3-3-
--------------------------------------------------------------------

------------------------------------------------------------------------
------------------------------------------------------------------------
--5------------------3----------------------------------0-0-0-0-0-0-0-0-
----------------------------------------1-1-1-1-1-1-1-1-----------------

--------------------------------------------------------------------
--------------------------------------------------------------------
--5-5-5-5-5-5-5-5-5-5-5-5-5-5-5-5---0-0-0-0-0-0-0-0-0-0-0-0-0-0-0-0-
--------------------------------------------------------------------

--------------------------------------------------------------------
--------------------------------------------------------------------
--3-3-3-3-3-3-3-3-3-3-3-3-3-3-3-3---0-0-0-0-0-0-0-0-0-0-0-0-0-0-0-0-
--------------------------------------------------------------------

------------------------------------------------------------
------------------------------------------------------------
--3-3-3-3-3-3-3-3-3-3-3-3-3-3-3-3---------------------------
------------------------------------0-0--0-0--0-0--0-0------

----------------------------------------------------------------------------
----------------------------------------------------------------------------
----------------------------------------------------------------------------
--0-0--0-0--0-0--0-0--------0-0--0-0--0-0--0-0--------0-0--0-0--0-0---------

--------------------------------------------------------------------
--------------------------------------------------------------------
--0-0-0-0-0-0-0-0-0-0-0-0-0-0-0-0---3-3-3-3-3-3-3-3-----------------
----------------------------------------------------3-3-3-3-3-3-3-3-

--------------------------------------------------------------------
--------------------------------------------------------------------
--0-0-0-0-0-0-0-0-0-0-0-0-0-0-0-0-------------------5-5-5-5-5-5-5-5-
------------------------------------0-0-0-0-0-0-0-0-----------------

--------------------------------------------------------------------
--------------------------------------------------------------------
--0-0-0-0-0-0-0-0-0-0-0-0-0-0-0-0---3-3-3-3-3-3-3-3-----------------
----------------------------------------------------3-3-3-3-3-3-3-3-

--------------------------------------------------------------------
--------------------------------------------------------------------
--0-0-0-0-0-0-0-0-0-0-0-0-0-0-0-0-------------------5-5-5-5-5-5-5-5-
------------------------------------0-0-0-0-0-0-0-0-----------------

-------------------------------------------------------------
-------------------------------------------------------------
-------5--5-3------------------------------------------------
--5--5---------5--5-5--5-5----1--1-1-1-1-1-1-1-1-1-1-1-1-1-1-

------------------------------------------------------------------
------------------------------------------------------------------
-------5--5-3-----------------------------------------------------
--5--5---------5--5-5--5-5----0------------------1----------------

-------------------------------------------------------------------
-------------------------------------------------------------------
--0----------------------------------------------------------------
---------------------1------------------3--3-3--3-3--3-3--3-3--3-3-

-------------------------------------------------------
-------------------------------------------------------
--0----------------------------------------------------
-------------------------------------------------------]

-

Keyboard 3.
Tab by T.P

[E------------------------------------------------------------------------
B------------------------------------------------------------------------
G------------------------------------------------------------------------
D------------------------------------------------------------------------
A------------------------------------------------------------------------
E------------------------------------------------------------------------

------------------------------------------------------------------------
------------------------------------------------------------------------
------------------------------------------------------------------------
------------------------------------------------------------------------
------------------------------------------------------------------------
------------------------------------------------------------------------

--------------------------12-17-------12-17-------12-17-12----12-17-
-----------------------13----------13----------13----------13-------
--------------------14----------14----------14----------------------
--------------------------------------------------------------------
--------------------------------------------------------------------
--------------------------------------------------------------------

--15----15-20-15----15-20-15----15-20-15----15-20-
-----17----------17----------15----------15-------
--------------------------------------------------
--------------------------------------------------
--------------------------------------------------
--------------------------------------------------

--------12-17-------12-17-------12-17-12----12-17-
-----13----------13----------13----------13-------
--14----------14----------14----------------------
--------------------------------------------------
--------------------------------------------------
--------------------------------------------------

--12----12-17-12----12-17-17----17-22-17----17-22-
-----12----------12----------19----------19-------
--------------------------------------------------
--------------------------------------------------
--------------------------------------------------
--------------------------------------------------

--------12-17-------12-17-------12-17-12----12-17-
-----13----------13----------13----------13-------
--14----------14----------14----------------------
--------------------------------------------------
--------------------------------------------------
--------------------------------------------------

--15----15-20-15----15-20-15----15-20-15----15-20-
-----17----------17----------15----------15-------
--------------------------------------------------
--------------------------------------------------
--------------------------------------------------
--------------------------------------------------

--------12-17-------12-17-------12-17-12----12-17-
-----13----------13----------13----------13-------
--14----------14----------14----------------------
--------------------------------------------------
--------------------------------------------------
--------------------------------------------------

--12----12-17-12----12-17-17----17-22-17----17-22-------------------
-----12----------12----------19----------19-------------------------
--------------------------------------------------------------------
--------------------------------------------------------------------
--------------------------------------------------------------------
--------------------------------------------------------------------

------------------------------------------------------------------------
------------------------------------------------------------------------
------------------------------------------------------------------------
------------------------------------------------------------------------
------------------------------------------------------------------------
------------------------------------------------------------------------

------------------------------------------------------------------------
------------------------------------------------------------------------
------------------------------------------------------------------------
------------------------------------------------------------------------
------------------------------------------------------------------------
------------------------------------------------------------------------

------------------------------------------------------------------------
------------------------------------------------------------------------
------------------------------------------------------------------------
------------------------------------------------------------------------
------------------------------------------------------------------------
------------------------------------------------------------------------

------------------------------------------------------------------------
------------------------------------------------------------------------
------------------------------------------------------------------------
------------------------------------------------------------------------
------------------------------------------------------------------------
------------------------------------------------------------------------

------------------------------------------------------------------------
------------------------------------------------------------------------
------------------------------------------------------------------------
------------------------------------------------------------------------
------------------------------------------------------------------------
------------------------------------------------------------------------

------------------------------------------------------------------------
------------------------------------------------------------------------
------------------------------------------------------------------------
------------------------------------------------------------------------
------------------------------------------------------------------------
------------------------------------------------------------------------

--------------------8-0-8-0-7-0-7-0-5-0-5-0-8-7-5---
--------------------------------------------------5-
----------------------------------------------------
----------------------------------------------------
----------------------------------------------------
----------------------------------------------------

--8-0-8-0-7-0-7-0-5-0-5-0-3-5-7-3---8-0-8-0-7-0-7-0-5-0-5-0-8-7-5---
------------------------------------------------------------------5-
--------------------------------------------------------------------
--------------------------------------------------------------------
--------------------------------------------------------------------
--------------------------------------------------------------------

--8-0-8-0-7-0-7-0-3-1-3-5-7-5-7-8-------------------------------------
----------------------------------------------------------------------
----------------------------------------------------------------------
----------------------------------------------------------------------
----------------------------------------------------------------------
----------------------------------------------------------------------

------------------------------------
------------------------------------
------------------------------------
------------------------------------
------------------------------------
------------------------------------

--------12-17-------12-17-------12-17-12----12-17-
-----13----------13----------13----------13-------
--14----------14----------14----------------------
--------------------------------------------------
--------------------------------------------------
--------------------------------------------------

--15----15-20-15----15-20-15----15-20-15----15-20-
-----17----------17----------15----------15-------
--------------------------------------------------
--------------------------------------------------
--------------------------------------------------
--------------------------------------------------

--------12-17-------12-17-------12-17-12----12-17-
-----13----------13----------13----------13-------
--14----------14----------14----------------------
--------------------------------------------------
--------------------------------------------------
--------------------------------------------------

--12----12-17-12----12-17-17----17-22-17----17-22-
-----12----------12----------19----------19-------
--------------------------------------------------
--------------------------------------------------
--------------------------------------------------
--------------------------------------------------

--------12-17-------12-17-------12-17-12----12-17-
-----13----------13----------13----------13-------
--14----------14----------14----------------------
--------------------------------------------------
--------------------------------------------------
--------------------------------------------------

--15----15-20-15----15-20-15----15-20-15----15-20-
-----17----------17----------15----------15-------
--------------------------------------------------
--------------------------------------------------
--------------------------------------------------
--------------------------------------------------

--------12-17-------12-17-------12-17-12----12-17-
-----13----------13----------13----------13-------
--14----------14----------14----------------------
--------------------------------------------------
--------------------------------------------------
--------------------------------------------------

--12----12-17-12----12-17-17----17-22-17----17-22-------------------
-----12----------12----------19----------19-------------------------
--------------------------------------------------------------------
--------------------------------------------------------------------
--------------------------------------------------------------------
--------------------------------------------------------------------

------------------------------------------------------------------------
------------------------------------------------------------------------
------------------------------------------------------------------------
------------------------------------------------------------------------
------------------------------------------------------------------------
------------------------------------------------------------------------

------------------------------------------------------------------------
------------------------------------------------------------------------
------------------------------------------------------------------------
------------------------------------------------------------------------
------------------------------------------------------------------------
------------------------------------------------------------------------

------------------------------------
------------------------------------
------------------------------------
------------------------------------
------------------------------------
------------------------------------]

-

Guitar
Tab by T.P

[E----------------------------------------------
B----------------------------------------------
G----------------------------------------------
D-------------------------7--7-5---------------
A--------------------7--7-5--5-3--7--7-7--7-7--
E--------------------5--5---------5--5-5--5-5--

-------------------------------------------------------------
-------------------------------------------------------------
-------------------------------------------------------------
-------3---2---3---0---3---2-3-2--------7--7-5---------------
--3--------------------------------7--7-5--5-3--7--7-7--7-7--
--1--1---1---1---1---1---1---------5--5---------5--5-5--5-5--

----------------------------------------------------------------------------
----------------------------------------------------------------------------
----------------------------------------------------------------------------
----------------------------------------2-----------------------------------
--2------------------3------------------0------------------3----------------
--0------------------1-------------------------------------1----------------

------------------------------------------------------------------
------------------------------------------------------------------
------------------------------------------------------------------
------------------------------------------------------------------
--5----------------------------5/---------------------------------
--3--3-3--3-3--3-3--3-3--3-3---3/---------------------------------

------------------------------------------------------------------------
------------------------------------------------------------------------
------------------------------------------------------------------------
------------------------------------------------------------------------
------------------------------------------------------------------------
------------------------------------------------------------------------

---------------------------------------------------------------------------
---------------------------------------------------------------------------
---------------------------------------------------------------------------
--------------------------------------2------------------5-----------------
--------------------------------------0------------------3--------5--------
------------------------------------------------------------------3--------

-------------------------------------------------------------------
-------------------------------------------------------------------
-------------------------------------------------------------------
--2---------------------------7---------------7--7-5---------------
--0------------------2--------5----------7--7-5--5-3--7--7-7--7-7--
---------------------0-------------------5--5---------5--5-5--5-5--

-------------------------------------------------------------
-------------------------------------------------------------
-------------------------------------------------------------
-------3---2---3---0---3---2-3-2--------7--7-5---------------
--3--------------------------------7--7-5--5-3--7--7-7--7-7--
--1--1---1---1---1---1---1---------5--5---------5--5-5--5-5--

----------------------------------------------------------------------------
----------------------------------------------------------------------------
----------------------------------------------------------------------------
----------------------------------------2-----------------------------------
--2------------------3------------------0------------------3----------------
--0------------------1-------------------------------------1----------------

------------------------------------------------------------------
------------------------------------------------------------------
------------------------------------------------------------------
-------------------------------2----------------------------------
--5----------------------------0----------------------------------
--3--3-3--3-3--3-3--3-3--3-3--------------------------------------

-------------------------------------------------------------------------
-------------------------------------------------------------------------
-------------------------------------------------------------------------
--10---10---9---9---7---7---10-9-7-----10---10---9---9---7---7---5-7-9-5-
-----0----0---0---0---0---0--------7------0----0---0---0---0---0---------
-------------------------------------------------------------------------

--------------------------------------------------------------------------
--------------------------------------------------------------------------
--------------------------------------------------------------------------
--10---10---9---9---7---7---10-9-7-----10---10---9---9---5---5-7-9-7-9-10-
-----0----0---0---0---0---0--------7------0----0---0---0---8--------------
--------------------------------------------------------------------------

-------------------------------------------------------------------------
-------------------------------------------------------------------------
-------------------------------------------------------------------------
--10---10---9---9---7---7---10-9-7-----10---10---9---9---7---7---5-7-9-5-
-----0----0---0---0---0---0--------7------0----0---0---0---0---0---------
-------------------------------------------------------------------------

--------------------------------------------------------------------------
--------------------------------------------------------------------------
--------------------------------------------------------------------------
--10---10---9---9---7---7---10-9-7-----10---10---9---9---5---5-7-9-7-9-10-
-----0----0---0---0---0---0--------7------0----0---0---0---8--------------
--------------------------------------------------------------------------

------------------------------------------------------------------------
------------------------------------------------------------------------
------------------------------------------------------------------------
--7------------------5----------------------------------2-2-2-2-2-2-2-2-
--5------------------3------------------3-3-3-3-3-3-3-3-0-0-0-0-0-0-0-0-
----------------------------------------1-1-1-1-1-1-1-1-----------------

-----------------------------------------------------------------------
-----------------------------------------------------------------------
-----------------------------------------------------------------------
--7-7-7-7-7-7-7-7-7-7-7-7-7-7-7-7---10---10---9---9---7---7---10-9-7---
--5-5-5-5-5-5-5-5-5-5-5-5-5-5-5-5------0----0---0---0---0---0--------7-
-----------------------------------------------------------------------

-------------------------------------------------------------------------
-------------------------------------------------------------------------
-------------------------------------------------------------------------
--10---10---9---9---7---7---5-7-9-5---10---10---9---9---7---7---10-9-7---
-----0----0---0---0---0---0--------------0----0---0---0---0---0--------7-
-------------------------------------------------------------------------

---------------------------------------------------------------
---------------------------------------------------------------
---------------------------------------------------------------
--10---10---9---9---5-3-5-7-9-7-9-10---------------------------
-----0----0---0---0--------------------2-2--2-2--2-2--2-2------
---------------------------------------0-0--0-0--0-0--0-0------

----------------------------------------------------------------------------
----------------------------------------------------------------------------
----------------------------------------------------------------------------
----------------------------------------------------------------------------
--2-2--2-2--2-2--2-2--------2-2--2-2--2-2--2-2--------2-2--2-2--2-2---------
--0-0--0-0--0-0--0-0--------0-0--0-0--0-0--0-0--------0-0--0-0--0-0---------

------------------------------------------------------------------------
------------------------------------------------------------------------
------------------------------------------------------------------------
------------------------------------------------------------------------
------------------------------------------------------------------------
------------------------------------------------------------------------

------------------------------------------------------------------------
------------------------------------------------------------------------
------------------------------------------------------------------------
------------------------------------------------------------------------
------------------------------------------------------------------------
------------------------------------------------------------------------

-------------------------------------------------------------
-------------------------------------------------------------
-------------------------------------------------------------
-------7--7-5----------------------3---2---3---0---3---2-3-2-
--7--7-5--5-3--7--7-7--7-7----3------------------------------
--5--5---------5--5-5--5-5----1--1---1---1---1---1---1-------

------------------------------------------------------------------
------------------------------------------------------------------
------------------------------------------------------------------
-------7--7-5-----------------------------------------------------
--7--7-5--5-3--7--7-7--7-7----2------------------3----------------
--5--5---------5--5-5--5-5----0------------------1----------------

-------------------------------------------------------------------
-------------------------------------------------------------------
-------------------------------------------------------------------
--2----------------------------------------------------------------
--0------------------3------------------5--------------------------
---------------------1------------------3--3-3--3-3--3-3--3-3--3-3-

-------------------------------------------------------
-------------------------------------------------------
-------------------------------------------------------
--2----------------------------------------------------
--0----------------------------------------------------
-------------------------------------------------------]

-

Text:		Sweet boy, come in
I am the dark side of you
Die for my sins
Like the One once did

Cinnamon bed
For your unashamed appetite
A figurante
This dance will hurt like hell

Oh, bare grace misery
Just a child without a fairytale am I
Dark but so lovely
A Little Match Girl freezing in the snow

Love lying, enticing
(Bare grace misery)
Crowning the moment
(Bare grace misery)
This is what I am
Bare grace for the end of days

Romantic scent
Spoiled Lucrece lies warm for you
There's no such priest
That can pray me to heaven

When done with me
Forget if you think I feel ashamed
A wild thing
Never felt sorry for anything

Love lying...

Комментарий:	Bare Grace Misery - очень часто корысть в любовных
отношениях может привести к печальному концу. Эта
песня как раз об этом

-

Перевод:	Обнаженная грация отчаянья

Приятный мальчик, придет,
Я темная твоя половина,
За грехи мои смерть тебе грядет,
Чего нас учит истории седая льдина.

Постель пропитанная корицей,
Для твоего бесстыдного аппетита,
Это танец жжется раскаленной спицей,
Подобен аду - от него не излечится.

Ох, обнаженная милость отчаяния,
Я подобна ребенку без волшебной сказки,
Темно, но так любви пылают чаянья,
Но как в снегу затухла свеча былого:

Любна ложь, завлеченье
(Обнаженная милость отчаянья)
Венчая краткое мгновенье
(Обнаженная милость отчаянья).

Романтический аромат сокрыл ту ложь,
Которая из вас исходит,
И нет священника унявшего бы эту дрожь,
Ничья мольба меня уже на небо не возносит.

Когда удовлетворишься со мною,
Не думай, что я чувствую себя пристыжено,
Я дикая вещь - довольна игрою,
Не проси ни за что прощенья - любовью лживое окруженно.

-

Keyboard 1.
Tab by T. P

[E-----------------------10--10-8-----7--7-8--------------------
B--------------------------------------------------------------
G--------------------------------------------------------------
D--------------------------------------------------------------
A--------------------------------------------------------------
E--------------------------------------------------------------

-----10--10-8-----7--7-8--------------------------------------
--------------------------------------------------------------
--------------------------------------------------------------
--------------------------------------------------------------
--------------------------------------------------------------
--------------------------------------------------------------

------------------------------------------------------------------------
------------------------------------------------------------------------
------------------------------------------------------------------------
------------------------------------------------------------------------
------------------------------------------------------------------------
------------------------------------------------------------------------

------------------------------------------------------------------------
------------------------------------------------------------------------
------------------------------------------------------------------------
------------------------------------------------------------------------
------------------------------------------------------------------------
------------------------------------------------------------------------

------------------------------------------------------------------------
------------------------------------------------------------------------
------------------------------------------------------------------------
------------------------------------------------------------------------
------------------------------------------------------------------------
------------------------------------------------------------------------

------------------------------------------------------
------------------------------------------------------
------------------------------------------------------
------------------------------------------------------
------------------------------------------------------
------------------------------------------------------

-----10--10-8-----7--7-8-------------------------10--10-8-----7--7-8--
----------------------------------------------------------------------
----------------------------------------------------------------------
----------------------------------------------------------------------
----------------------------------------------------------------------
----------------------------------------------------------------------

------------------------------------------------------------------------
------------------------------------------------------------------------
------------------------------------------------------------------------
------------------------------------------------------------------------
------------------------------------------------------------------------
------------------------------------------------------------------------

------------------------------------------------------------------------
------------------------------------------------------------------------
------------------------------------------------------------------------
------------------------------------------------------------------------
------------------------------------------------------------------------
------------------------------------------------------------------------

------------------------------------------------------------------------
------------------------------------------------------------------------
------------------------------------------------------------------------
------------------------------------------------------------------------
------------------------------------------------------------------------
------------------------------------------------------------------------

------------------------------------------------------
------------------------------------------------------
------------------------------------------------------
------------------------------------------------------
------------------------------------------------------
------------------------------------------------------

--7-0-7-0-8-0-8-0-5-0-5-0-7-0-7-0---3-0-3-0-5-0-5-0-2-0-2-0-3-0-2-3-
--------------------------------------------------------------------
--------------------------------------------------------------------
--------------------------------------------------------------------
--------------------------------------------------------------------
--------------------------------------------------------------------

--3-0-2-3-5-2-3-5-5-0-7-5-3-0-2-0---7-0-7-0-8-0-8-0-5-0-5-0-8-7-5---
------------------------------------------------------------------5-
--------------------------------------------------------------------
--------------------------------------------------------------------
--------------------------------------------------------------------
--------------------------------------------------------------------

------------------------------------------------------------------------
------------------------------------------------------------------------
------------------------------------------------------------------------
------------------------------------------------------------------------
------------------------------------------------------------------------
------------------------------------------------------------------------

--7-7--7-7--7-7--7-7--------5-5--5-5--5-5--5-5------
----------------------------------------------------
--9-9--9-9--9-9--9-9--------7-7--7-7--7-7--7-7------
----------------------------------------------------
----------------------------------------------------
----------------------------------------------------

--3-3--3-3--3-3--3-3--------2-2--2-2--2-2---------------------------
--------------------------------------------------------------------
--5-5--5-5--5-5--5-5--------4-4--4-4--4-4---------------------------
--------------------------------------------------------------------
--------------------------------------------------------------------
--------------------------------------------------------------------

------------------------------------------------------------------------
------------------------------------------------------------------------
------------------------------------------------------------------------
------------------------------------------------------------------------
------------------------------------------------------------------------
------------------------------------------------------------------------

------------------------------------------------------
------------------------------------------------------
------------------------------------------------------
------------------------------------------------------
------------------------------------------------------
------------------------------------------------------

-----10--10-8-----7--7-8-------------------------10--10-8-----7--7-8--
----------------------------------------------------------------------
----------------------------------------------------------------------
----------------------------------------------------------------------
----------------------------------------------------------------------
----------------------------------------------------------------------

------------------------------------------------------------------------
------------------------------------------------------------------------
------------------------------------------------------------------------
------------------------------------------------------------------------
------------------------------------------------------------------------
------------------------------------------------------------------------

------------------------------------------------------------------------
------------------------------------------------------------------------
------------------------------------------------------------------------
------------------------------------------------------------------------
------------------------------------------------------------------------
------------------------------------------------------------------------]

-

Keyboard 2.
Tab by T. P

[E--------------------0--------------------------------------
B---------------------------------------1-------------------
G--------------------2------------------------2---------2---
D--------------------------------------------------3--------
A--------------------0--------------------------------------
E-----------------------------------------------------------

--0------------------------------------------------------------
---------------------0---------------------1-------------------
--2------------------------0---------------------2-------------
--------------------------------2---------------------3--------
--0----------------------------------2---------------------3---
---------------------------------------------------------------

---------------------------------------------------------------
--1---------------------1--------------------------------------
--------2---------------------2---------2-----4----------------
-------------2---------------------3----------5----------------
------------------0--------------------------------------------
----------------------------------------------3----------------

------------------------------------------------------------------------
------------------------------------------------------------------------
------------------------------------------------------------------------
------------------------------------------------------------------------
------------------------------------------------------------------------
------------------------------------------------------------------------

------------------------------------------------------------------------
------------------------------------------------------------------------
------------------------------------------------------------------------
------------------------------------------------------------------------
------------------------------------------------------------------------
------------------------------------------------------------------------

--0------------------3-------------------0----------------
------------------------------3---------------------------
--2------------------5-------------------2----------------
----------------------------------------------------------
--0------------------3--------5----------0----------------
------------------------------3---------------------------

-----------5----------0--------------------------------------
--0--------------------------------------1-------------------
-----------7----------2------------------------2---------2---
--2-------------------------------------------------3--------
-----------5----------0--------------------------------------
--0----------------------------------------------------------

--0------------------------------------------------------------
---------------------0---------------------1-------------------
--2------------------------0---------------------2-------------
--------------------------------2---------------------3--------
--0----------------------------------2---------------------3---
---------------------------------------------------------------

---------------------------------------------------------------
--1---------------------1--------------------------------------
--------2---------------------2---------2-----4----------------
-------------2---------------------3----------5----------------
------------------0--------------------------------------------
----------------------------------------------3----------------

------------------------------------------------------------------
--1----3----1----0------1----3----1----0------1----3----1----0----
------------------------------------------------------------------
------------------------------------------------------------------
------------------------------------------------------------------
------------------------------------------------------------------

------------------------------------------------------------------
--1----3----1----0------1----3----1----0------1----3----1----0----
------------------------------------------------------------------
------------------------------------------------------------------
------------------------------------------------------------------
------------------------------------------------------------------

------------------------------------------------------------------
--1----3----1----0------1----3----1----0------1----3----1----0----
------------------------------------------------------------------
------------------------------------------------------------------
------------------------------------------------------------------
------------------------------------------------------------------

----------------------------------------------------------------------------
--1----3----1----0----------------------------------------------------------
----------------------------------------------------------------------------
----------------------------------------------------------------------------
----------------------------------------------------------------------------
----------------------------------------------------------------------------

------------------------------------------------------------------------
------------------------------------------------------------------------
------------------------------------------------------------------------
------------------------------------------------------------------------
------------------------------------------------------------------------
------------------------------------------------------------------------

------------------------------------------------------------------------
------------------------------------------------------------------------
------------------------------------------------------------------------
------------------------------------------------------------------------
------------------------------------------------------------------------
------------------------------------------------------------------------

------------------------------------------------------------------------
------------------------------------------------------------------------
------------------------------------------------------------------------
------------------------------------------------------------------------
------------------------------------------------------------------------
------------------------------------------------------------------------

------------------------------------------------------------------------
------------------------------------------------------------------------
------------------------------------------------------------------------
------------------------------------------------------------------------
------------------------------------------------------------------------
------------------------------------------------------------------------

--------------------0--------------------------------------
---------------------------------------1-------------------
--------------------2------------------------2---------2---
--------------------------------------------------3--------
--------------------0--------------------------------------
-----------------------------------------------------------

--0------------------------------------------------------------
---------------------0---------------------1-------------------
--2------------------------0---------------------2-------------
--------------------------------2---------------------3--------
--0----------------------------------2---------------------3---
---------------------------------------------------------------

---------------------------------------------------------------
--1---------------------1--------------------------------------
--------2---------------------2---------2-----4----------------
-------------2---------------------3----------5----------------
------------------0--------------------------------------------
----------------------------------------------3----------------

-------------------------------------------------------
-------------------------------------------------------
-------------------------------------------------------
-------------------------------------------------------
--0----------------------------------------------------
-------------------------------------------------------]
Добавлено: 31.01.2014
Другие материалы по этой песне:

Страница создана 08.04.2012
http://primanota.ru/nightwish/bare-grace-misery-chords.htm
Привет, Гость.
Предлагаем пройти революционный курс по гитаре.
Подарок от PrimaNota.Ru, забирай!