PrimaNota.ru - самый крупный в мире бесплатный архив песенных текстов, аккордов, табулатур и нот


Nightwish - 10th Man Down - аккорды и текст, таба, бас-таба, видео

Регистрация Запомнить меня
Войти через:  Facebook Google Twitter Vk Yandex Mail.ru

Nightwish - 10th Man Down - аккорды и текст, таба, бас-таба, видео

Печатать
Просмотров: 331
10th Man Down
Nightwish
Sammi (Bass Guitar)
 
[G------------------------------------------------------------------------
D------------------------------------------------------------------------
A------------------------------------------------------------------------
E------------------------------------------------------------------------

------------------------------------------------------------------------
------------------------------------------------------------------------
------------------------------------------------------------------------
------------------------------------------------------------------------

----------------------------------------------------------
----------------------------------------------------------
--------------------------------------0----0----0----0----
----------------------------------------------------------

------------------------------------------------------------------
------------------------------------------------------------------
--0----0----0----0------0----0----0----0--------------------------
----------------------------------------------3----3----1----1----

--------------------------------------------------------------
--------------------------------------------------------------
--0----0--------------------------0----0----------------------
------------1----1------3----3--------------------------------

--------------------------------------------------------------
--------------------------------------------------------------
------------------------3--3----------------3--3--------------
--1----1----1----1--------------------------------------------

-------------------------------------------------------------------
-------------------------------1----0------------------------------
--3--3----------------1--------------------3--3--3-----------------
----------------------------------------------------4--4--4--4--4--

----------------------------------------------------
----------------------------------------------------
--1--1--1--3--3--3--3--3----------------------------
----------------------------1--1--1--1--1--1--1--1--

----------------------------------------------------------------------
----------------------------------------------------------------------
----------------------------0----0----0----0------0----0----0----0----
--4--4--4--4--4--4--4--4----------------------------------------------

------------------------------------------------------------------
------------------------------------------------------------------
--0----0----0----0----------------------------0----0----0----0----
------------------------3----3----1----1--------------------------

------------------------------------------------------------------
------------------------0----0----0----0--------------------------
--0----0----0----0------------------------------------------------
----------------------------------------------1----1----1----1----

----------------------------------------------------
----------------------------------------------------
--0--0--0--0--0--0--0--0----0--0--0--0--0--0--0--0--
----------------------------------------------------

----------------------------------------------------
----------------------------------------------------
--0--0--0--0--0--0--0--0----------------------------
----------------------------3--3--3--3--1--1--1--1--

---------------------------------------------------------------------------
------------------------------------------------------0----0----0----0-----
--0--0--0-------------------------------0--0--0--0-------------------------
-----------1--1--1--1--1----3--3--3--3----------------------------------1--

-----------------------------------------------------------
-----------------------------------------------------------
-----------------------------------------------------------
----1----1----1----1----3----------------------------------

--------------------------------------------------------------------
--------------------------------------------------------------------
--0-0-0-0-0-0-0-0-0-0-0-0-0-0-0-0---0-0-0-0-0-0-0-0-0-0-0-0-3-3-3-3-
--------------------------------------------------------------------

--------------------------------------------------------------------
--------------------------0-0-0-0---0-0-0-0-0-0-0-0-----------------
----------------------------------------------------3-3-3-3-2-2-2-2-
--0-0-0-0-0-0-0-0-0-0-0-0-------------------------------------------

--------------------------------------------------------------------
--------------------------------------------------------------------
--0-0-0-0-0-0-0-0-0-0-0-0-0-0-0-0---0-0-0-0-0-0-0-0-0-0-0-0-3-3-3-3-
--------------------------------------------------------------------

--------------------------------------------------------------------
--------------------------0-0-0-0---0-0-0-0-0-0-0-0-----------------
----------------------------------------------------3-3-3-3---------
--1-1-1-1-1-1-1-1-1-1-1-1-----------------------------------3-3-3-3-

------------------------------------------------------------------
------------------------------------------------------------------
--0----0----0----0------0----0----0----0------0----0----0----0----
------------------------------------------------------------------

------------------------------------------------------------------
------------------------------------------------------------------
------------------------0----0----0----0------0----0----0----0----
--3----3----1----1------------------------------------------------

----------------------------------------------------------------------
--0----0----0----0----------------------------------------------------
----------------------------------------------0--0--0--0--0--0--0--0--
------------------------1----1----1----1------------------------------

----------------------------------------------------
----------------------------------------------------
--0--0--0--0--0--0--0--0----0--0--0--0--0--0--0--0--
----------------------------------------------------

----------------------------------------------------
----------------------------------------------------
----------------------------0--0--0-----------------
--3--3--3--3--1--1--1--1-------------1--1--1--1--1--

-----------------------------------------------------------------------
----------------------------0----0----0----0---------------------------
--------------0--0--0--0-----------------------------------------------
--3--3--3--3----------------------------------1------1----1----1----1--

-----------------------------------------------------------------------
-----------------------------------------------------------------------
---------------------------------------0-0-0-0-0-0-0-0-0-0-0-0-0-0-0-0-
--3--------------------------------------------------------------------

--------------------------------------------------------------------
------------------------------------------------------------0-0-0-0-
--0-0-0-0-0-0-0-0-0-0-0-0-3-3-3-3-----------------------------------
------------------------------------0-0-0-0-0-0-0-0-0-0-0-0---------

--------------------------------------------------------------------
--0-0-0-0-0-0-0-0---------------------------------------------------
------------------3-3-3-3-2-2-2-2---0-0-0-0-0-0-0-0-0-0-0-0-0-0-0-0-
--------------------------------------------------------------------

--------------------------------------------------------------------
------------------------------------------------------------0-0-0-0-
--0-0-0-0-0-0-0-0-0-0-0-0-3-3-3-3-----------------------------------
------------------------------------1-1-1-1-1-1-1-1-1-1-1-1---------

--------------------------------------------------------
--0-0-0-0-0-0-0-0---------------------------------------
------------------3-3-3-3-----------0-------------------
--------------------------3-3-3-3--------0----1----3----

------------------------------------------------------------------
------------------------------------------------------------------
--0--0-0----------------0--0-0----------------0--0-0--------------
------------------------------------------------------------------

----------------------------------------------------------------------
--------------0--0-0--------------------------------------------------
--1--1-1--------------------0--0-0----------------0--0-0--------------
----------------------------------------------------------------------

--------------------------------------------------------
------------------------0--0-0--0--0-0------------------
--0--0-0--------------------------------3--3-3----------
------------------------------------------------3--3-3--

--------------------------------------------------------------
--------------------------------------------------------------
--0--0-0--0--0-1--0--0-0--0--0-3----0--0-0--0--0-1-------1----
----------------------------------------------------3---------

------------------------------------------------------
---------------------------------------------0--------
--0--0-0--0--0-1--0--0-0--0--0-3----1-----------------
------------------------------------------------------

--------------------------------------------------------------
--------------------------------------------------------------
--0--0-0--0--0-1--0--0-0--0--0-3----0--0-0--0--0-1-------1----
----------------------------------------------------3---------

-------------------------------------------------------
------------------------------------0------------------
--0--0-0--0--0-1--0--0-0--0--0-3-------------3---------
--------------------------------------------------3----

---------------------------------------------------------
---------------------------------------------------------
---------------------------------------------------------
--0--0-0--0----0--0-0--0--0-0----0----0--0-0--0--0--1----

---------------------------------------------------------
---------------------------------------------------------
---------------------------------------------------------
--0--0-0--0----0--0-0--0--0-0----0----0--0-0--0--0--1----

--------------------------------------------------------------
--------------------------------------------------------------
--------------------------------------------------------------
--0--0-0--0----0--0-0--0--0-0----0--0-0--0----0--0-0--0--0-0--

---------------------------------------------------------
---------------------------------------------------------
---------------------------------------------------------
--0----0--0-0--0--0--1------0--0-0--0----0--0-0--0--0-0--

--------------------------------------------------------
--------------------0-----------------------------------
---------------3----------------------------------------
--0----0--0-0--------------0--0-0--0----0--0-0--0--0-0--

---------------------------------------------------------
---------------------------------------------------------
---------------------------------------------------------
--0----0--0-0--0--0--1------0--0-0--0----0--0-0--0--0-0--

-----------------------------------------------------------
--------------------0--------------------------------------
---------------3-----------0--0-0--0--0-0--0--0-0----------
--0----0--0-0--------------------------------------3--3-3--

--------------------------------------------------------------------
--------------------------------------------------------------------
--0--0-0--0--0-0--------------------0--0-0--0--0-0------------------
------------------1--1-1--3--3-3--------------------3--3-3--3--3-3--

-------------------------------------------------------------------
--0--0-0--0--0-0--0--0-0-0--0-0------------------------------------
-----------------------------------0--0-0--0--0-0--0--0-0----------
-----------------------------------------------------------3--3-3--

--------------------------------------------------------------------
--------------------------------------------------------------------
--0--0-0--0--0-0--------------------0--0-0--0--0-0--3--3-3--3--3-3--
------------------1--1-1--3--3-3------------------------------------

---------------------------------------------------------------------
---------------------------------------------------------------------
---------------------------------------------------------------------
--3--3-3--3--3-3--3--3-3-3--3-3--------------------------------------

-------------------------------------------------------------------
-------------------------------------------------------------------
-------------------------------------------------------------------
--------------------------------------0--0-0--0----0--0-0--0--0-0--

-------------------------------------------------------
-------------------------------------------------------
-------------------------------------------------------
--0----0--0-0--3----------0--0-0--0----0--0-0--0--0-0--

--------------------------------------------------------
--------------------0-----------------------------------
---------------0----------------------------------------
--0----0--0-0--------------3--3-3--3----3--3-3--3--3-3--

--------------------------------------------------------
--------------------------------------------------------
---------------1----------------------------------------
--3----3--3-3-------1------3--3-3--3----3--3-3--3--3-3--

--------------------------------------------------------
--------------------------------------------------------
---------------3----------------------------------------
--3----3--3-3-------1------0--0-0--0----0--0-0--0--0-0--

-------------------------------------------------------
-------------------------------------------------------
-------------------------------------------------------
--0----0--0-0--3----------0--0-0--0----0--0-0--0--0-0--

--------------------------------------------------------
--------------------0-----------------------------------
---------------0----------------------------------------
--0----0--0-0--------------3--3-3--3----3--3-3--3--3-3--

--------------------------------------------------------
--------------------------------------------------------
---------------1----------------------------------------
--3----3--3-3-------1------3--3-3--3----3--3-3--3--3-3--

-----------------------------------------------------------
-----------------------------------------------------------
---------------3-----------0--0-0--0--0-1--0--0-0--0--0-3--
--3----3--3-3-------1--------------------------------------

--------------------------------------------------------------
--------------------------------------------------------------
--0--0-0--0--0-1-------1------0--0-0--0--0-1--0--0-0--0--0-3--
------------------3-------------------------------------------

------------------------------------------------------
-----------0------------------------------------------
--1-------------------0--0-0--0--0-1--0--0-0--0--0-3--
------------------------------------------------------

--------------------------------------------------------------
--------------------------------------------------------------
--0--0-0--0--0-1-------1------0--0-0--0--0-1--0--0-0--0--0-3--
------------------3-------------------------------------------

-----------------------------------------------------------------------------
--0--------------------------------------------------------------------------
-----------3-----------0---------------------0-0-0-0-0-0-0-0-0-0-0-0-0-0-0-0-
----------------3-----------0----1----3--------------------------------------

--------------------------------------------------------------------
------------------------------------------------------------0-0-0-0-
--0-0-0-0-0-0-0-0-0-0-0-0-3-3-3-3-----------------------------------
------------------------------------0-0-0-0-0-0-0-0-0-0-0-0---------

--------------------------------------------------------------------
--0-0-0-0-0-0-0-0---------------------------------------------------
------------------3-3-3-3-2-2-2-2---0-0-0-0-0-0-0-0-0-0-0-0-0-0-0-0-
--------------------------------------------------------------------

--------------------------------------------------------------------
------------------------------------------------------------0-0-0-0-
--0-0-0-0-0-0-0-0-0-0-0-0-3-3-3-3-----------------------------------
------------------------------------1-1-1-1-1-1-1-1-1-1-1-1---------

--------------------------------------------------------------------
--0-0-0-0-0-0-0-0---------------------------------------------------
------------------3-3-3-3-----------0-0-0-0-0-0-0-0-0-0-0-0-0-0-0-0-
--------------------------3-3-3-3-----------------------------------

--------------------------------------------------------------------
------------------------------------------------------------0-0-0-0-
--0-0-0-0-0-0-0-0-0-0-0-0-3-3-3-3-----------------------------------
------------------------------------0-0-0-0-0-0-0-0-0-0-0-0---------

--------------------------------------------------------------------
--0-0-0-0-0-0-0-0---------------------------------------------------
------------------3-3-3-3-2-2-2-2---0-0-0-0-0-0-0-0-0-0-0-0-0-0-0-0-
--------------------------------------------------------------------

--------------------------------------------------------------------
------------------------------------------------------------0-0-0-0-
--0-0-0-0-0-0-0-0-0-0-0-0-3-3-3-3-----------------------------------
------------------------------------1-1-1-1-1-1-1-1-1-1-1-1---------

---------------------------------------------------------------------------
--0-0-0-0-0-0-0-0----------------------------------------------------------
------------------3-3-3-3-----------0---------------------0----------------
--------------------------3-3-3-3--------0----1----3-----------------------

------------------------------------
------------------------------------
------------------------------------
------------------------------------]

-

10th Man Down

Today I killed, he was just a boy
Eight before him, I knew them all
In the fields a dying oath:
I? d kill them all to save my own

Cut me free, Bleed with me, Oh no
One by one, We will fall, down down
Pull the plug, End the pain, Run? n fight for life
Hold on tight, this ain? t my fight

Deliver me from this war
It? s not for me it? s because of you
Devil? s instant my eternity
Obey to kill to save yourself

Cut me free...

"I envy the 9 lives that gave me hell
My path made up by their torn bodies
Man to man, soldier to soldier, dust to dust
Call me a coward but I can? t take it anymore"

They wait for me back home
The live with eyes turned away
They were the first ones to see
They are the last ones to bleed

"The ultimate high as all beautiful dies
A ruler? s tool, priest? s excuse, tyrant? s delight...
I alone, the great white hunter
I? ll march till the dawn brings me rest
10th patriot at the gallow? s pole!"

Cut me free...

-

Emppu (Guitar)

[E------------------------------------------------------------------------
B------------------------------------------------------------------------
G------------------------------------------------------------------------
D------------------------------------------------------------------------
A------------------------------------------------------------------------
E------------------------------------------------------------------------

------------------------------------------------------------------------
------------------------------------------------------------------------
------------------------------------------------------------------------
------------------------------------------------------------------------
------------------------------------------------------------------------
------------------------------------------------------------------------

-------------------------------------------------------------------------
-------------------------------------------------------------------------
--------------------------------------2----------------------------------
--------------------------------------2----------------------------------
--------------------------------------0----------------------------------
-------------------------------------------------------------------------

----------------------------------------------------------
----------------------------------------------------------
----------------------------------------2-----------------
--------------------5--------3----------2------3----------
--------------------5--------3----------0------3----------
--------------------3--------1-----------------1----------

------------------------------------------------------------------------
------------------------------------------------------------------------
---------2--------------------------------------------------------------
--5------2------------7--7--7--7--7--7--7--7----3--3--3--3--3--3--3--3--
--5------0------------5--5--5--5--5--5--5--5----3--3--3--3--3--3--3--3--
--3---------------------------------------------1--1--1--1--1--1--1--1--

------------------------------------------------------------
------------------------------------------------------------
--5--5----------------5--5----------------5--5--------------
--5--5----------------5--5----------------5--5--------------
--3--3----------------3--3----------------3--3--------------
------------------------------------------------------------

-------------------------------------------------------------
-------------------------------------------------------------
--3--------8----7------5-------------------3------5----------
--3--------8----7------5------6------------3------5----------
--1--------6----5------3------6------------1------3----------
------------------------------4------------------------------

-----------------------------------------------------------------------
-----------------------------------------------------------------------
-----------------------------------------------2--------2--------------
--3--3--3--3--3--3--3--3----6------------------2--------3--------------
--3--3--3--3--3--3--3--3----6------------------0--0--0--0--0--0--0--0--
--1--1--1--1--1--1--1--1----4------------------------------------------

------------------------------------------------------------------------
------------------------------------------------------------------------
--------------2-----2-------2--------2----------------------------------
--5-----5-----2-----2-------2--------3----------------5--------3--------
--5-----5-----0--0--0--0----0--0--0--0--0--0--0--0----5--------3--------
--3--3--3--3------------------------------------------3--------1--------

-----------------------------------------------------------------------
-----------------------------------------------------------------------
-----------------------------------------------------------------------
--2--------3--------3-------5-----5/----7-----7/-----0--------------3--
-----0--0-----0--0-----0-------0-----0-----0---------------------------
-----------------------------------------------------------------------

----------------------------------------------------------------------
----------------------------------------------------------------------
--------------------2--------2----------------------------2-----2-----
--------------------2--------3----------------5-----5-----2-----2-----
--------------------0--0--0--0--0--0--0--0----5-----5-----0--0--0--0--
----------------------------------------------3--3--3--3--------------

------------------------------------------------------------------------
------------------------------------------------------------------------
--2--------2------------------------------------------------------------
--2--------3----------------5--------3----------2--------3--------3-----
--0--0--0--0--0--0--0--0----5--------3-------------0--0-----0--0-----0--
----------------------------3--------1----------------------------------

---------------------------------------------------------------
---------------------------------------------------------------
---------------------------------------------------------------
--5-----5/----7-----7------0--------------3--------------------
-----0-----0-----0---------------------------------------------
---------------------------------------------------------------

-----------------------------------------------------------------------
-----------------------------------------------------------------------
------------------------------------------2----------2----------2------
--2------------3--2----0------------------2----------2----------2------
--3------------5--3----2------------------0--0-0-0-0-0--0-0-0-0-0--0-0-
-----------------------------------------------------------------------

----------------------------------------------------------
----------------------------------------------------------
------2----------2----5----------------------------7--7-7-
------2----------2----5------2----------2----------7--7-7-
--0-0-0--0-0-0-0-0----3------2----------2----------5--5-5-
-----------------------------0--0-0-0-0-0--0-0-0-0--------

----------------------------------------------------------
----------------------------------------------------------
--7-7-7--7-7-7-7-5----4------2----------2----------2------
--7-7-7--7-7-7-7-5----4------2----------2----------2------
--5-5-5--5-5-5-5-3----2------0--0-0-0-0-0--0-0-0-0-0--0-0-
----------------------------------------------------------

----------------------------------------------------------
----------------------------------------------------------
------2----------2----5----------------------------7--7-7-
------2----------2----5------3----------3----------7--7-7-
--0-0-0--0-0-0-0-0----3------3----------3----------5--5-5-
-----------------------------1--1-1-1-1-1--1-1-1-1--------

-----------------------------------------------------
-----------------------------------------------------
--7-7-7--7-7-7-7-5-----------2--------2--------------
--7-7-7--7-7-7-7-5----5------2--------3--------------
--5-5-5--5-5-5-5-3----5------0--0--0--0--0--0--0--0--
----------------------3------------------------------

------------------------------------------------------------------------
------------------------------------------------------------------------
--------------2-----2-------2--------2----------------------------------
--5-----5-----2-----2-------2--------3----------------5--------3--------
--5-----5-----0--0--0--0----0--0--0--0--0--0--0--0----5--------3--------
--3--3--3--3------------------------------------------3--------1--------

-----------------------------------------------------------------------
-----------------------------------------------------------------------
-----------------------------------------------------------------------
--2--------3--------3-------5-----5/----7-----7/-----0--------------3--
-----0--0-----0--0-----0-------0-----0-----0---------------------------
-----------------------------------------------------------------------

----------------------------------------------------------------------
----------------------------------------------------------------------
--------------------2--------2----------------------------2-----2-----
--------------------2--------3----------------5-----5-----2-----2-----
--------------------0--0--0--0--0--0--0--0----5-----5-----0--0--0--0--
----------------------------------------------3--3--3--3--------------

------------------------------------------------------------------------
------------------------------------------------------------------------
--2--------2------------------------------------------------------------
--2--------3----------------5--------3----------2--------3--------3-----
--0--0--0--0--0--0--0--0----5--------3-------------0--0-----0--0-----0--
----------------------------3--------1----------------------------------

---------------------------------------------------------------
---------------------------------------------------------------
---------------------------------------------------------------
--5-----5/----7-----7------0--------------3--------------------
-----0-----0-----0---------------------------------------------
---------------------------------------------------------------

-----------------------------------------------------------------------
-----------------------------------------------------------------------
------------------------------------------2----------2----------2------
--2------------3--2----0------------------2----------2----------2------
--3------------5--3----2------------------0--0-0-0-0-0--0-0-0-0-0--0-0-
-----------------------------------------------------------------------

----------------------------------------------------------
----------------------------------------------------------
------2----------2----5----------------------------7--7-7-
------2----------2----5------2----------2----------7--7-7-
--0-0-0--0-0-0-0-0----3------2----------2----------5--5-5-
-----------------------------0--0-0-0-0-0--0-0-0-0--------

----------------------------------------------------------
----------------------------------------------------------
--7-7-7--7-7-7-7-5----4------2----------2----------2------
--7-7-7--7-7-7-7-5----4------2----------2----------2------
--5-5-5--5-5-5-5-3----2------0--0-0-0-0-0--0-0-0-0-0--0-0-
----------------------------------------------------------

----------------------------------------------------------
----------------------------------------------------------
------2----------2----5----------------------------7--7-7-
------2----------2----5------3----------3----------7--7-7-
--0-0-0--0-0-0-0-0----3------3----------3----------5--5-5-
-----------------------------1--1-1-1-1-1--1-1-1-1--------

-------------------------------------------------
-------------------------------------------------
--7-7-7--7-7-7-7-5-----------2-------------------
--7-7-7--7-7-7-7-5----5------2----2----3----5----
--5-5-5--5-5-5-5-3----5------0----2----3----5----
----------------------3-----------0----1----3----

--------------------------------------------------------------
--------------------------------------------------------------
--2-------2----3--2-------2----5----2-------2----3-------3----
--2-------2----3--2-------2----5----2-------2----3--5----3----
--0--0-0--0--0-1--0--0-0--0--0-3----0--0-0--0--0-1--5----1----
----------------------------------------------------3---------

------------------------------------------------------
------------------------------------------------------
--2-------2----3--2-------2----5----3--------7--------
--2-------2----3--2-------2----5----3--------7--------
--0--0-0--0--0-1--0--0-0--0--0-3----1--------5--------
------------------------------------------------------

--------------------------------------------------------------
--------------------------------------------------------------
--2-------2----3--2-------2----5----2-------2----3-------3----
--2-------2----3--2-------2----5----2-------2----3--5----3----
--0--0-0--0--0-1--0--0-0--0--0-3----0--0-0--0--0-1--5----1----
----------------------------------------------------3---------

-------------------------------------------------------
-------------------------------------------------------
--2-------2----3--2-------2----5----7--------5---------
--2-------2----3--2-------2----5----7--------5----5----
--0--0-0--0--0-1--0--0-0--0--0-3----5--------3----5----
--------------------------------------------------3----

--------------------------------------------------------------
-------------------------------1------------------------------
--2-------2----3--2-------2----0----2-------2----3-------3----
--2-------2----3--2-------2---------2-------2----3--5----3----
--0--0-0--0--0-1--0--0-0--0--0-3----0--0-0--0--0-1--5----1----
----------------------------------------------------3---------

------------------------------------------------------
------------------------------------------------------
--2-------2----3--2-------2----5----3--------7--------
--2-------2----3--2-------2----5----3--------7--------
--0--0-0--0--0-1--0--0-0--0--0-3----1--------5--------
------------------------------------------------------

--------------------------------------------------------------
--------------------------------------------------------------
--2-------2----3--2-------2----5----2-------2----3-------3----
--2-------2----3--2-------2----5----2-------2----3--5----3----
--0--0-0--0--0-1--0--0-0--0--0-3----0--0-0--0--0-1--5----1----
----------------------------------------------------3---------

-------------------------------------------------------
-------------------------------------------------------
--2-------2----3--2-------2----5----7--------5---------
--2-------2----3--2-------2----5----7--------5----5----
--0--0-0--0--0-1--0--0-0--0--0-3----5--------3----5----
--------------------------------------------------3----

---------------------------------------------------------
---------------------------------------------------------
---------------------------------------------------------
--2--2-2--2----2--2-2--2--2-2----2----2--2-2--2--2--3----
--2--2-2--2----2--2-2--2--2-2----2----2--2-2--2--2--3----
--0--0-0--0----0--0-0--0--0-0----0----0--0-0--0--0--1----

----------------------------------------------------13~---
----------------------------------------------------13~---
----------------------------------------------------------
--2--2-2--2----2--2-2--2--2-2----2----2--2-2--2--2--------
--2--2-2--2----2--2-2--2--2-2----2----2--2-2--2--2--------
--0--0-0--0----0--0-0--0--0-0----0----0--0-0--0--0--------

--------------------------------------------------------------
--------------------------------------------------------------
--------------------------------------------------------------
--2--2-2--2----2--2-2--2--2-2----2--2-2--2----2--2-2--2--2-2--
--2--2-2--2----2--2-2--2--2-2----2--2-2--2----2--2-2--2--2-2--
--0--0-0--0----0--0-0--0--0-0----0--0-0--0----0--0-0--0--0-0--

---------------------------------------------------------
---------------------------------------------------------
---------------------------------------------------------
--2----2--2-2--2--2--3------2--2-2--2----2--2-2--2--2-2--
--2----2--2-2--2--2--3------2--2-2--2----2--2-2--2--2-2--
--0----0--0-0--0--0--1------0--0-0--0----0--0-0--0--0-0--

--------------------------------------------------------
--------------------------------------------------------
---------------5----7-----------------------------------
--2----2--2-2--5----7------2--2-2--2----2--2-2--2--2-2--
--2----2--2-2--3----5------2--2-2--2----2--2-2--2--2-2--
--0----0--0-0--------------0--0-0--0----0--0-0--0--0-0--

---------------------------------------------------------
---------------------------------------------------------
---------------------------------------------------------
--2----2--2-2--2--2--3------2--2-2--2----2--2-2--2--2-2--
--2----2--2-2--2--2--3------2--2-2--2----2--2-2--2--2-2--
--0----0--0-0--0--0--1------0--0-0--0----0--0-0--0--0-0--

------------------------------------------------------------------
------------------------------------------------------------------
---------------5----7------2-------------------2------------------
--2----2--2-2--5----7------2------------5------2--------3----5----
--2----2--2-2--3----5------0------------5------0--------3----5----
--0----0--0-0---------------------------3---------------1----3----

-----------------------------------------------------------
-----------------------------------------------------------
--2-------------------7------------------2-----------------
--2--------5----------7------------------2------------5----
--0--------5----------5------------------0------------5----
-----------3------------------------------------------3----

------------------------------------------------------------
------------------------------------------------------------
--2--------------------2--------5---------------------------
--2--------3----5------2--------5----------5----------------
--0--------3----5------0--------3----------5----------------
-----------1----3--------------------------3----------------

-------------------------------------------------------------------
-------------------------------------------------------------------
-------------------------------------------------------------------
-------------------------------------------------------------------
--------------------------------------2--2-2--2----2--2-2--2--2-2--
--------------------------------------0--0-0--0----0--0-0--0--0-0--

--------------------------------------------------------
--------------------------------------------------------
---------------2----7-----------------------------------
---------------2----7------2--2-2--2----2--2-2--2--2-2--
--2----2--2-2--0----5------2--2-2--2----2--2-2--2--2-2--
--0----0--0-0--------------0--0-0--0----0--0-0--0--0-0--

--------------------------------------------------------
--------------------------------------------------------
--------------------7-----------------------------------
--2----2--2-2--5----7------2--2-2--2----2--2-2--2--2-2--
--2----2--2-2--5----5------2--2-2--2----2--2-2--2--2-2--
--0----0--0-0--3-----------0--0-0--0----0--0-0--0--0-0--

--------------------------------------------------------
--------------------------------------------------------
---------------2----7---------------------------5--5-5--
--2----2--2-2--2----7------5--5-5--5----5--5-5--5--5-5--
--2----2--2-2--0----5------5--5-5--5----5--5-5--3--3-3--
--0----0--0-0--------------3--3-3--3----3--3-3----------

--------------------------------------------------------
--------------------------------------------------------
---------------3--------------------------------5--5-5--
--5----5--5-5--3----3------5--5-5--5----5--5-5--5--5-5--
--5----5--5-5--1----3------5--5-5--5----5--5-5--3--3-3--
--3----3--3-3-------1------3--3-3--3----3--3-3----------

--------------------------------------------------------
--------------------------------------------------------
---------------5----------------------------------------
--5----5--5-5--5----3------2--2-2--2----2--2-2--2--2-2--
--5----5--5-5--3----3------2--2-2--2----2--2-2--2--2-2--
--3----3--3-3-------1------0--0-0--0----0--0-0--0--0-0--

--------------------------------------------------------
--------------------------------------------------------
--------------------7-----------------------------------
--2----2--2-2--5----7------2--2-2--2----2--2-2--2--2-2--
--2----2--2-2--5----5------2--2-2--2----2--2-2--2--2-2--
--0----0--0-0--3-----------0--0-0--0----0--0-0--0--0-0--

--------------------------------------------------------
--------------------------------------------------------
---------------2----7---------------------------5--5-5--
--2----2--2-2--2----7------5--5-5--5----5--5-5--5--5-5--
--2----2--2-2--0----5------5--5-5--5----5--5-5--3--3-3--
--0----0--0-0--------------3--3-3--3----3--3-3----------

--------------------------------------------------------
--------------------------------------------------------
---------------3--------------------------------5--5-5--
--5----5--5-5--3----3------5--5-5--5----5--5-5--5--5-5--
--5----5--5-5--1----3------5--5-5--5----5--5-5--3--3-3--
--3----3--3-3-------1------3--3-3--3----3--3-3----------

-----------------------------------------------------------
-----------------------------------------------------------
---------------5-----------2-------2----3--2-------2----5--
--5----5--5-5--5----3------2-------2----3--2-------2----5--
--5----5--5-5--3----3------0--0-0--0--0-1--0--0-0--0--0-3--
--3----3--3-3-------1--------------------------------------

--------------------------------------------------------------
--------------------------------------------------------------
--2-------2----3-------3------2-------2----3--2-------2----5--
--2-------2----3--5----3------2-------2----3--2-------2----5--
--0--0-0--0--0-1--5----1------0--0-0--0--0-1--0--0-0--0--0-3--
------------------3-------------------------------------------

------------------------------------------------------
------------------------------------------------------
--3--------7----------2-------2----3--2-------2----5--
--3--------7----------2-------2----3--2-------2----5--
--1--------5----------0--0-0--0--0-1--0--0-0--0--0-3--
------------------------------------------------------

--------------------------------------------------------------
--------------------------------------------------------------
--2-------2----3-------3------2-------2----3--2-------2----5--
--2-------2----3--5----3------2-------2----3--2-------2----5--
--0--0-0--0--0-1--5----1------0--0-0--0--0-1--0--0-0--0--0-3--
------------------3-------------------------------------------

--------------------------------------------------------------------------
--------------------------------------------------------------------------
--7--------5-----------2---------------------2----------2----------2------
--7--------5----5------2----2----3----5------2----------2----------2------
--5--------3----5------0----2----3----5------0--0-0-0-0-0--0-0-0-0-0--0-0-
----------------3-----------0----1----3-----------------------------------

----------------------------------------------------------
----------------------------------------------------------
------2----------2----5----------------------------7------
------2----------2----5------2----------2----------7------
--0-0-0--0-0-0-0-0----3------2----------2----------5--5-5-
-----------------------------0--0-0-0-0-0--0-0-0-0--------

----------------------------------------------------------
----------------------------------------------------------
------7----------5----4------2----------2----------2------
------7----------5----4------2----------2----------2------
--5-5-5--5-5-5-5-3----2------0--0-0-0-0-0--0-0-0-0-0--0-0-
----------------------------------------------------------

----------------------------------------------------------
----------------------------------------------------------
------2----------2----5----------------------------7------
------2----------2----5------3----------3----------7------
--0-0-0--0-0-0-0-0----3------3----------3----------5--5-5-
-----------------------------1--1-1-1-1-1--1-1-1-1--------

----------------------------------------------------------
----------------------------------------------------------]
Добавлено: 18.09.2013
Другие материалы по этой песне:

Страница создана 17.03.2012
http://primanota.ru/nightwish/10th-man-down-chords.htm
Привет, Гость.
Предлагаем пройти революционный курс по гитаре.
Подарок от PrimaNota.Ru, забирай!