PrimaNota.ru - самый крупный в мире бесплатный архив песенных текстов, аккордов, табулатур и нот


Nightstalker - Use - таба, видео

Регистрация Запомнить меня
Войти через:  Facebook Google Twitter Vk Yandex Mail.ru

Nightstalker - Use - таба, видео

Печатать
Просмотров: 50
-------------------------------------------------------------------------------
                             Use - Nightstalker
-------------------------------------------------------------------------------
Tabbed by: VakiPitsi
E-mail:

Tuning: eBGDAD


Riff 1 (0:27)

e|---------------------------------------------------------------------------|
B|---------------------------------------------------------------------------|
G|---------------------------------------------------------------------------|
D|-0--0----------------------------------------------------------------------|
A|-0--0--3/5\3----3/5--5--5--5-----------------------------------------------|
D|-0--0--0-----5--0----0--0--0-----------------------------------------------|

Riff 2 (0:40)

e|---------------------------------------------------------------------------|
B|---------------------------------------------------------------------------|
G|-----------------------3-3-3-3---------------------------------------------|
D|-0-0-0-0-0-0--3-3-3-3--3-3-3-3--0--3b--0-----------------------------------|
A|-0-0-0-0-0-0--3-3-3-3--1-1-1-1--0--3b--0-----------------------------------|
D|-0-0-0-0-0-0--3-3-3-3-----------0--3b--0-----------------------------------|

Riff 3 (1:23)

e|---------------------------------------------------------------------------|
B|---------------------------------------------------------------------------|
G|-------------------------------10h12-12b-----------------------------------|
D|-0-0-0-0-0-0-0-0--3-3-3-3-3-3--10------------------------------------------|
A|-0-0-0-0-0-0-0-0--3-3-3-3-3-3----------------------------------------------|
D|-0-0-0-0-0-0-0-0--3-3-3-3-3-3----------------------------------------------|



Riff Order:

Riff 1 x4
Riff 2 x4
Riff 1 x4
Riff 3 x4
Riff 1 x3
Riff 3 x4
Riff 2 x4
Solo (Sorry I couldn't figure the whole thing out but I think it's mostly Dorian scale in D. Sorry..)
Riff 1 x6
Riff 3 x4
Riff 2 x4


************************************

| /   slide up
| \   slide down
| h   hammer-on
| p   pull-off
| ~   vibrato
| +   harmonic
| x   Mute note
| b   Bend
| pb  Pre-bend
| br  Bend release
| pbr Pre-bend release
| brb Bend release bend

************************************
Добавлено: 08.08.2015
Вам также может быть интересно:
Другие материалы по этой песне:
  • Аккорды и текст

Страница создана 08.08.2015
http://primanota.ru/nightstalker/use-chords.htm
Привет, Гость.
Предлагаем пройти революционный курс по гитаре.
Подарок от PrimaNota.Ru, забирай!