PrimaNota.ru - самый крупный в мире бесплатный архив песенных текстов, аккордов, табулатур и нот


Nightstalker - Line - таба, видео

Регистрация Запомнить меня
Войти через:  Facebook Google Twitter Vk Yandex Mail.ru

Nightstalker - Line - таба, видео

Печатать
Просмотров: 42
Уроки эстрадного вокала в Санкт-Петербурге
-------------------------------------------------------------------------------
                              Line - Nightstalker
-------------------------------------------------------------------------------
Tabbed by: VakiPitsi

Tuning: Standard (eBGDAE)

  Intro/Main Riff (0:00-1:40 / 2:16-3:06)
e|-------------------------------------------------------------------------------------------------------|
B|-------------------------------------------------------------------------------------------------------|
G|-----------------------------------------------------------3-3-3-3--5-5-5-5-5---12br-12br--12br-12br---|
D|--------------10bp8--------------10bp8-------------10bp8---3-3-3-3--5-5-5-5-5--------------------------|
A|-10-10--10-10-------10-10--10-10-------10-10--10-10--------1-1-1-1--3-3-3-3-3--------------------------|
E|-------------------------------------------------------------------------------------------------------|

e|---------------------------------------------------|
B|---------------------------------------------------|
G|---3-3-3-3--5-5-5-5-5---12br-12br--12br-12br-------|
D|---3-3-3-3--5-5-5-5-5------------------------------|
A|---1-1-1-1--3-3-3-3-3------------------------------|
E|---------------------------------------------------|  

e|---------------------------------------------------------------------------------------------------------|
B|---------------------------------------------------------------------------------------------------------|
G|--------------------------------------------------------------3-3-3-3--5-5-5-5-5---12br-12br--12br-12br--|
D|--------------17bp15--------------17bp15-------------17bp15---3-3-3-3--5-5-5-5-5-------------------------|
A|-17-17--17-17--------17-17--17-17-------17-17--17-17----------1-1-1-1--3-3-3-3-3-------------------------|
E|---------------------------------------------------------------------------------------------------------|

e|----------------------------------------------------|
B|----------------------------------------------------|
G|---3-3-3-3--5-5-5-5-5---12br-12br--12br-12br--------|
D|---3-3-3-3--5-5-5-5-5-------------------------------|
A|---1-1-1-1--3-3-3-3-3-------------------------------|
E|----------------------------------------------------|  


  (1:40-2:16 / 3:06-4:20)
e|--------------------------------------------------|
B|--------------------------------------------------|
G|--------------------------------------------------|
D|-8-5-3-5--3-5-8-108-3-5---------------------------|
A|-8-5-3-5--3-5-8-108-3-5---------------------------|
E|-6-3-1-3--1-3-6-8-6-1-3---8-6-8-8b-8-6-3-6-3------|


************************************

| /   slide up
| \   slide down
| h   hammer-on
| p   pull-off
| ~   vibrato
| +   harmonic
| x   Mute note
| b   Bend
| pb  Pre-bend
| br  Bend release
| pbr Pre-bend release
| brb Bend release bend

************************************
Добавлено: 19.06.2016
Другие материалы по этой песне:
  • Аккорды и текст

Страница создана 19.06.2016
http://primanota.ru/nightstalker/line-chords.htm
Привет, Гость.
Предлагаем пройти революционный курс по гитаре.
Подарок от PrimaNota.Ru, забирай!