PrimaNota.ru - самый крупный в мире бесплатный архив песенных текстов, аккордов, табулатур и нот


Nightshade - Rebellion - таба, видео

Регистрация Запомнить меня
Войти через:  Facebook Google Twitter Vk Yandex Mail.ru

Nightshade - Rebellion - таба, видео

Печатать
Просмотров: 73
first tab for this song! Enjoy!!!

intro

1st guitar

tremolo pick these

C#-----------------------|-------------------------|
G#-----------------------|-------------------------|
E------------------------|-------------------------|
B------------------------|-------------------------|
F#-00-12-10-6-9-10-6-9-5-|-13-12-10-6-10-6-9-5-----| 3x
B--00--------------------|-------------------------|
   **
C#-----------------------|-------------------------|
G#-----------------------|-------------------------|
E------------------------|-------------------------|
B------------------------|-------------------------|
F#-00-12-10-6-9-10-6-9-5-|-13-12-10-6-10-6-9-5-----| 5x
B--00--------------------|-------------------------|
   **
verse 1/breakdown whatever you want to call it

C#----------------------------------------------------|
G#----------------------------------------------------|
E-----------------------------------------------------|
B-----------------------------------------------------|
F#----------------------------------------------------|
B---1p0-1p0-1p0-1p0--000000-1-0-10-13p0-13p0-13p0-12--| repeat until you hear the next part

C#---------------------------------------------------|
G#---------------------------------------------------|
E----------------------------------------------------|
B----------------------------------------------------|
F#--------15*----------------15*---------------------|
B-0-12-13-----000000---12-13-------------------------| that alternates with the riff 
before so listen for the changes

next part

C#-----------------------------------------------------|
G#-----------------------------------------------------|
E------------------------------------------------------|
B------------------------------------------------------|
F#---555555-4444444--777777-8888888-5555-888-7777-4444-|
B------------------------------------------------------| repeat twice

cool riff

C#---------------------------------------------------------------------------|
G#---------------------------------------------------------------------------|
E----------------------------------------------------------------------------|
B-----------------------------------------8-10-------------------------------|
F#-5-------4---7-8---------------5---8-7--8-10--5-------4--7--8--------------|
B----00000---0--0---000000000000---0--0---8-10---0000000--0--0---------------|
     *****   *  *   ************   *  *          *******  *  *
C#-------------------------------------------------|
G#-------------------------------------------------|
E--------------------------------------------------|
B-----------------------------------------7h8h10---|
F#----------7--10--8-5h7h8-7h8h10-8h10h12----------|
B-000000000---0---0--------------------------------| repeat about 3 or 4 times
  *********   *   *

C#----------------------------|
G#----------------------------|
E-----------------------------|
B-----------------------------|
F#----3-----3-----------3-----|
B-0000--0000-000000-0000------| repeat until bridge
  ****  **** ****** ****
tremolo these

C#---------|
G#---------|
E----------|
B----5-7-8-|
F#---------|
B----------|

bridge

all notes  used, you can work out the rythem

C#--|-|-|--|-------|
G#--|-|-|--|-------|
E---|-|-|--|-------|
B---|-|-|--|-------|
F#-0|3|8|10|-------|
B--0|3|8|10|-------|

C#------------------|
G#------------------|
E-------------------|
B----7--------------|
F#--5-8-7-8-7-5-----|
B-------------------| repeat that until the end of the song

i hope this has helped people who play guitar and like nightshade
Добавлено: 08.12.2013
Вам также может быть интересно:
Другие материалы по этой песне:
  • Аккорды и текст

Страница создана 08.12.2013
http://primanota.ru/nightshade/rebellion-chords.htm
Привет, Гость.
Предлагаем пройти революционный курс по гитаре.
Подарок от PrimaNota.Ru, забирай!