PrimaNota.ru - самый крупный в мире бесплатный архив песенных текстов, аккордов, табулатур и нот


Nightshade - Exile - таба, видео

Регистрация Запомнить меня
Войти через:  Facebook Google Twitter Vk Yandex Mail.ru

Nightshade - Exile - таба, видео

Печатать
Просмотров: 67
-----------------------------------------------------------------------------
                             EXILE - Nightshade
-----------------------------------------------------------------------------
Tabbed by: Hollywise14
E-mail:rockin_guitar_mat@live.ca

Tuning:

d|--------------------------------------------------------------|
A|--------------------------------------------------------------|
F|---------------------------------------------------9-7----7-9-| X7
C|------9h8---6--------9h8---6--------9h8---6------------10-----|
G|000-0-----0-7--000-0-----0-7--000-0-----0-7--888-8------------|
D|--------------------------------------------------------------|

d|--------------------------------------------------------------|
A|--------------------------------------------------------------|
F|------------------------9----9--------------------------------|
C|----9---12---9---10-------10-------9---8---9---11---9---8---9-|
G|0-0---0----0---0----0-0--------7-7---7---7---7----7---7---7---|
D|--------------------------------------------------------------|

d|--------------------------------------------------------------|
A|--------------------------------------------------------------|
F|--------------------------9----9------------------------------|
C|--9---9---12---9---10-------10-------9---8---9----5~----------|
G|0---0---0----0---0----0-0--------7-7---7---7---7--5~----------|
D|--------------------------------------------------3~----------|

d|----------------|
A|----------------|
F|----------------| X4
C|2~--7~--3~--5~--|
G|2~--7~--3~--5~--|
D|0~--5~--1~--3~--|

d|--------------------------------------------------------------|
A|--------------------------------------------------------------|
F|---------------------------7------7---------------------------|
C|77777777-66666666-55555555-7------7----------9-----10----9----|
G|77777777-66666666-55555555-5-5555-5-77777777---77-----77------|
D|55555555-44444444-33333333------------------------------------|
                               P--|   P------|   P|     P|

d|--------------------------------------------------------------|
A|--------------------------------------------------------------|
F|-----9-7---------------------------------9-7---------10-9-7-9-| X4
C|7-10------10-9-7-10-9-7-----7-9-10--7-10-----10-9-7-----------|
G|------------------------11------------------------------------|
D|--------------------------------------------------------------|

d|----------------------------------------|
A|----------12~-10~-9~-----7~-9~-7~-7~-9~-|
F|7~-9~-10~------------10~----------------|
C|----------------------------------------|
G|----------------------------------------|
D|----------------------------------------|

d|--------------------------------------------------|
A|-----------12~-10~-9~-----7~-9~-10-9-7-9-7----7-9-|
F|-7~-9~-10~------------10~------------------10-----|
C|--------------------------------------------------|
G|--------------------------------------------------|
D|--------------------------------------------------|

d|--------------------------------------------------------------|
A|--------------------------------------------------------------|
F|---------------------------------------------------9-7----7-9-|
C|------9h8---6--------9h8---6--------9h8---6------------10-----|
G|000-0-----0-7--000-0-----0-7--000-0-----0-7--888-8------------|
D|--------------------------------------------------------------|

d|---------------------|----------------|
A|---------------------|----------------|
F|---------------------|----------------| X3
C|2--------7~--3~--5~--|2~--7~--3~--5~--|
G|2--2222--7~--3~--5~--|2~--7~--3~--5~--|
D|0--0000--5~--1~--3~--|0~--5~--1~--3~--|

d|--------------------------------------------------------------|
A|--------------------------------------------------------------|
F|---------------------------7------7---------------------------|
C|77777777-66666666-55555555-7------7----------9-----10----9----|
G|77777777-66666666-55555555-5-5555-5-77777777---77-----77------|
D|55555555-44444444-33333333------------------------------------|
                               P--|   P------|   P|     P|

d|----------------------------------------|     \
A|----------------------------------------|      |
F|-------------------9--------------------|      |
C|----10---9h10h12-------10---9---12---10-|      |
G|0-0----0---------0---0----0---0----0----|      |
D|----------------------------------------|      |
                                                  > X4
d|-----------------------------------------|     |
A|-----------------------------------------|     |
F|--------------------9--------10---9------|     |
C|-----10---9h10h12-------10------------12-|     |
G|-0-0----0---------0---0----0----0---0----|     |
D|-----------------------------------------|    /

d|--------------------------------------------------------------|
A|--------------------------------------------------------------|
F|---------------------------------------------------9-7----7-9-| X2
C|------9h8---6--------9h8---6--------9h8---6------------10-----|
G|000-0-----0-7--000-0-----0-7--000-0-----0-7--888-8------------|
D|--------------------------------------------------------------|

d|-------------------------------------|
A|-------------------------------------|
F|-------------------------------------|
C|77--7--33--3s5--5--77--7--33--3s5--5-|
G|77--7--33--3s5--5--77--7--33--3s5--5-|
D|55--5--11--1s3--3--55--5--11--1s3--3-|

d|----------------------------------------------|
A|----------------------------------------------|
F|----9---7---7---------9p0-7p0-----------------| X6
C|7-7---7---7---10--7-7---------10p0-9-10-12----|
G|-------------------------------------------10-|
D|----------------------------------------------|

d|--------------------------------------------------------------|
A|--------------------------------------------------------------|
F|---------------------------7------7---------------------------|
C|77777777-66666666-55555555-7------7----------9-----10----9----|
G|77777777-66666666-55555555-5-5555-5-77777777---77-----77------|
D|55555555-44444444-33333333------------------------------------|
                               P--|   P------|   P|     P|

d|--------------------------------------------------------------|
A|--------------------------------------------------------------|
F|-----9-7---------------------------------9-7---------10-9-7-9-| X4
C|7-10------10-9-7-10-9-7-----7-9-10--7-10-----10-9-7-----------|
G|------------------------11------------------------------------|
D|--------------------------------------------------------------|

d|----------------------------------------|             \
A|----------12~-10~-9~-----7~-9~-7~-7~-9~-|              |
F|7~-9~-10~------------10~----------------|              |
C|----------------------------------------|              |
G|----------------------------------------|              |
D|----------------------------------------|              |
                                                          > X3
d|--------------------------------------------------|    |
A|-----------12~-10~-9~-----7~-9~-10-9-7-9-7----7-9-|    |
F|-7~-9~-10~------------10~------------------10-----|    |
C|--------------------------------------------------|    |
G|--------------------------------------------------|    |
D|--------------------------------------------------|   /

d|------------------|
A|------------------|
F|----9---7---7-----| 
C|7-7---7---7---10~-|
G|------------------|
D|------------------|

Добавлено: 27.07.2013
Вам также может быть интересно:
Другие материалы по этой песне:
  • Аккорды и текст

Страница создана 27.07.2013
http://primanota.ru/nightshade/exile-chords.htm
Привет, Гость.
Предлагаем пройти революционный курс по гитаре.
Подарок от PrimaNota.Ru, забирай!