PrimaNota.ru - самый крупный в мире бесплатный архив песенных текстов, аккордов, табулатур и нот


Nightscape - Higher Than Life - таба, видео

Регистрация Запомнить меня
Войти через:  Facebook Google Twitter Vk Yandex Mail.ru

Nightscape - Higher Than Life - таба, видео

Печатать
Просмотров: 84
Уроки эстрадного вокала в Санкт-Петербурге
-------------------------------------------------------------------------------
                           HIGHER THAN LIFE- Nightscape
-------------------------------------------------------------------------------

Tuning: Standard

Intro
e||-------------------------------------------------------------------|
B||-------------------------------------------------------------------|
G||.------------------------------------------------------------------|
D||.------------------------------------------------------------------|
A||--12-0-0-7-0-0-8-0-0-5-0-0-7-0-3-0-5-0-0-2-0-0-3-0-0-5-0-0-2-0-3-0-|
E||-------------------------------------------------------------------|

e|--------------------------------------------------------------------||
B|--------------------------------------------------------------------||
G|-------------------------------------------------------------------.||
D|--12-0-0-7-0-0-8-0-0-5-0-0-7-0-3-0-5-0-0-2-0-0-3-0-0-5-0-0-2-0-3-0-.||
A|--------------------------------------------------------------------||
E|--------------------------------------------------------------------||
                                 1_____________________________________
e|-------------------------------|-------------------------------------|
B|-------------------------------|-------------------------------------|
G|-------------------------------|-------------------------------------|
D|-------------------------------|-------------------------------------|
A|--12-0-0-7-0-0-8-0-0-5-0-0-7-0-|-3-0-5-0-0-2-0-0-3-0-0-5-0-0-2-0-3-0-|
E|-------------------------------|-------------------------------------|
  2__________________________
e|---------------------------|
B|---------------------------|
G|---------------------------|
D|-10--9--10~---14--12--14~--|
A|---------------------------|
E|---------------------------|
      
Verse
       *(Notes are triplets but played rapidly)*
e|---------------------------------------------------------------------------|
B|---------------------------------------------------------------------------|
G|-----------------------------------------------------------8~~-------------|
D|----------------------------------------------------6~~~~--8~~--8~~--------|
A|--333-333-333-333-333-333-333-333-333-333-333-333---6~~~~--6~~--8~~--------|
E|----------------------------------------------------4~~~~-------6~~--------| 


************************************

| /   slide up
| \   slide down
| h   hammer-on
| p   pull-off
| ~   Each one represents 1 beat to hold out. (4~~~ would mean 4 is a whole note)
| +   harmonic
| x   Mute note
| b   Bend
| pb  Pre-bend
| br  Bend release
| pbr Pre-bend release
| brb Bend release bend

************************************
Добавлено: 17.06.2016
Другие материалы по этой песне:
  • Аккорды и текст

Страница создана 17.06.2016
http://primanota.ru/nightscape/higher-than-life-chords.htm
Привет, Гость.
Предлагаем пройти революционный курс по гитаре.
Подарок от PrimaNota.Ru, забирай!