PrimaNota.ru - самый крупный в мире бесплатный архив песенных текстов, аккордов, табулатур и нот


Nightmares On Wax - You Wish - таба, видео

Регистрация Запомнить меня
Войти через:  Facebook Google Twitter Vk Yandex Mail.ru

Nightmares On Wax - You Wish - таба, видео

Печатать
Просмотров: 166
-------------------------------------------------------------------------------
                             YOU WISH - Nightmares On Wax
-------------------------------------------------------------------------------
Tabbed by: Gabe Rubs You


Tuning: Standard


Bass Line:
G|---------------------------------------------------------------------------|
D|---------------------------------------------------------------------------|
A|---------------------------------------------------------------------------|
E|---5--7-8-9---7-7--5-------------------------------------------------------|


Chords:
e|--9---9----7--7--7---5-----------------------------------------------------|
B|--9---9----7--7--7---5-----------------------------------------------------|
G|--9---9----8--8--8---6-----------------------------------------------------|
D|--11--11---9--9--9---7-----------------------------------------------------|
A|--11--11---9--9--9---7-----------------------------------------------------|
E|--9---9----7--7--7---5-----------------------------------------------------|

e|---------------------------------------------------------------------------|
B|---------------------------------------------------------------------------|
G|--9-8--8h9p8-------------------------------------------------------------|
D|-----------------11-----9-11-11--------------------------------------------|
A|---------------------11----------------------------------------------------|
E|---------------------------------------------------------------------------|



************************************

| /   slide up
| \   slide down
| h   hammer-on
| p   pull-off
| ~   vibrato
| +   harmonic
| x   Mute note
| b   Bend
| pb  Pre-bend
| br  Bend release
| pbr Pre-bend release
| brb Bend release bend

************************************
Добавлено: 22.09.2015
Другие материалы по этой песне:
  • Аккорды и текст

Страница создана 22.09.2015
http://primanota.ru/nightmares-on-wax/you-wish-chords.htm
Привет, Гость.
Предлагаем пройти революционный курс по гитаре.
Подарок от PrimaNota.Ru, забирай!