PrimaNota.ru - самый крупный в мире бесплатный архив песенных текстов, аккордов, табулатур и нот


Nightmare - Alumina Death Note Ending 1 - таба, видео

Регистрация Запомнить меня
Войти через:  Facebook Google Twitter Vk Yandex Mail.ru

Nightmare - Alumina Death Note Ending 1 - таба, видео

Печатать
Просмотров: 398
-------------------------------------------------------------------------------
                             ALUMINA - Nightmare
-------------------------------------------------------------------------------
Tabbed by: aawwwf4u
E-mail: aawwwf4u@gmail.com

Tuning: Standard

As always, this is the anime opening, not the full version.

Intro
(First line is played twice)
e|-------------------------------------------------------------------------|
B|-------------------------------------------------------------------------|
G|--5-----------5----------5---5-6-6---------------------------------------|
D|----8---8-------8---8------8---------------------------------------------|
A|------8-----------8------------------------------------------------------|
E|-------------------------------------------------------------------------|

e|-------------------------------------------------------------------------|
B|------------6-7-6--------------------------------------------------------|
G|--8-8-8-8-8---------------------5-6-5-------------------6-8--------------|
D|--------------------------------------8-8--------------------------------|
A|------------------------8-8-8-8------------------------------------------|
E|-------------------------------------------------------------------------|

Pre-Chorus

e|-------------------------------------------------------------------------|
B|--6---6---6---------6---6-9-9------6---6---6-----------7-7---------------|
G|----8---8---8-6-8-8---8--------------8---8---8-6-8-8-8-----6-5-----------|
D|---------------------------------------------------------------8---------|
A|-------------------------------------------------------------------------|
E|-------------------------------------------------------------------------|

e|-------------------------------------------------------------------------|
B|--6---6---6---------6---6-9-9-------6---6---6-------6-7--6-------6-------|
G|----8---8---8-6-8-8---8---------------8---8---8-6-8--------8-6-8---------|
D|-------------------------------------------------------------------------|
A|-------------------------------------------------------------------------|
E|-------------------------------------------------------------------------|

Chorus

e|-------------------------------------------------------------------------|
B|--6-6-7-9-9-7-6---6-6--------------------------7-7-6-5-6-----------------|
G|----------------8-------5-6---------6-5----------------------------------|
D|----------------------8-----------------8--8-7---------------------------|
A|-------------------------------------------------------------------------|
E|-------------------------------------------------------------------------|

e|----------------------9-8-9----------------------------------------------|
B|--6-6-7-9-9-7-6---6-6----------------------------7-7-6-------------------|
G|----------------8--------------------6-6-6-8-6-8-------------------------|
D|-------------------------------------------------------------------------|
A|-------------------------------------------------------------------------|
E|-------------------------------------------------------------------------|

That is all, enjoy :)

Добавлено: 21.12.2015
Другие материалы по этой песне:
  • Аккорды и текст

Страница создана 21.12.2015
http://primanota.ru/nightmare/alumina-death-note-ending-1-chords.htm
Привет, Гость.
Предлагаем пройти революционный курс по гитаре.
Подарок от PrimaNota.Ru, забирай!