PrimaNota.ru - самый крупный в мире бесплатный архив песенных текстов, аккордов, табулатур и нот


Nightingale - Still Alive - таба, видео

Регистрация Запомнить меня
Войти через:  Facebook Google Twitter Vk Yandex Mail.ru

Nightingale - Still Alive - таба, видео

Печатать
Просмотров: 95
Уроки эстрадного вокала в Санкт-Петербурге
-------------------------------------------------------------------------------
NIGHTINGALE- STILL ALIVE- from Invisible 2004
-------------------------------------------------------------------------------
Tabbed by:NihilView
E-mail:


Tuning:Half-step down- Eb Ab Db Gb Bb Eb


!------------------------------------------------------------!
!-----------------3--2---------------------------------------! INTRO
!---4-4------4----2--2---------------------------------------!
!---4-4--4---4----0--2-----2--2------------------------------!
!---2-2--0---2----0--0-----2--2------------------------------!
!--------------------------0--0------------------------------!


|---------------------------------------------------------------------------|
|------------3-3----2-2--------------------3--3----2--2---------------------|
|--4--4------2-2----2-2----1-1------4--4---2--2----2--2---------------------|
|--4--4------0-0--- 2-2----2-2------4--4---0--0----2--2---------------0-----|
|--2--2------0-0----0-0----2-2------2--2---0--0----0--0----------0-2--------|
|--------------------------0-0------------------------------0-2-------------|



|---------------------------------------------------------------------------|
|---------------------------------------------------------------------------| VERSE
|---------------------------------------------------------------------------|
|---4--4-4-----7--7-7-7-----------------------------------------------------|
|---2--2-2-----5--5-5-5---7-7-7-7------2--2-2--2----------------------------|
|-------------------------5-5-5-5------0--0-0--0----------------------------|
  P.M...............................................
      

|------------3---5--------------------0---------------------------------------|
|------------3---3---5--??------------0---------------------------------------| PRECHORUS
|------------0---2---5----------------0---------------------------------------|
|--------------------5---------------------4--4--4--4-------------------------|
|------------------------------------------4--4--4--4-------------------------|
|----0-2-----------------------0-2-3-------2--2--2--2-------------------------|





************************************

| /   slide up
| \   slide down
| h   hammer-on
| p   pull-off
| ~   vibrato
| +   harmonic
| x   Mute note
| b   Bend
| pb  Pre-bend
| br  Bend release
| pbr Pre-bend release
| brb Bend release bend

************************************
Добавлено: 31.12.2015
Другие материалы по этой песне:
  • Аккорды и текст

Страница создана 31.12.2015
http://primanota.ru/nightingale/still-alive-chords.htm
Привет, Гость.
Предлагаем пройти революционный курс по гитаре.
Подарок от PrimaNota.Ru, забирай!