PrimaNota.ru - самый крупный в мире бесплатный архив песенных текстов, аккордов, табулатур и нот


Night - Gunpowder Treason - таба, видео

Регистрация Запомнить меня
Войти через:  Facebook Google Twitter Vk Yandex Mail.ru

Night - Gunpowder Treason - таба, видео

Печатать
Просмотров: 79
          Night
  - Gunpowder Treason - 
          Night

  tabbed by PelzR (07-28-2015)


Tuning: Standard E (E A D G B e)

This is a very basic (!) tab of the song "Gunpowder Treason" by the swedish Heavy Metal Band Night.
So no time signature, note lenghts, song structure ect., yeah... it's not my most detailed effort.
You have to listen carefully to not getting confused with the way it is tabbed.


Intro

e|----------------|-------------------|-------------------|-------------------|
B|----------------|-------------------|-------------------|-------------------|
G|-2--------4---5-|-(5)---------5---7-|-(7)---------7---9-|-(9)-------9---9---|
D|-2--------2---3-|-(3)---------3---5-|-(5)---------5---7-|-(7)-------7---7---|
A|----0-0-0---0---|-----0-0-0-0---0---|-----0-0-0-0---0---|-----0-0-0---0---0-|
E|----------------|-------------------|-------------------|-------------------|
      . . .   .         . . . .   .         . . . .   .         . . .   .   .

e|----------------|-------------------|-------------------|-----------------||
B|----------------|-------------------|-------------------|-----------------||
G|-2--------4---5-|-(5)---------5---7-|-(7)-------------2-|-(2)-------------|| Guitar 1
D|-2--------2---3-|-(3)---------3---5-|-(5)-------5-4---2-|-(2)-2-----2-2---||
A|----0-0-0---0---|-----0-0-0-0---0---|-----0-0-0-3-2-0-0-|-(0)-0-0-0-0-0---||
E|----------------|-------------------|-------------------|---------------3-||
      . . .   .         . . . .   .         . . .     .           . .     ~


e|----------------|-------------------|-------------------|-------------------|
B|----------------|-------------------|-------------------|-------------------|
G|-2--------------|-(2)---------------|-(2)---------------|-(2)----------5--0-|
D|-2--------------|-(2)---------------|-(2)---------------|-(2)----------5--0-|
A|-0--------------|-(0)---------------|-(0)---------------|-(0)---------------|
E|----------------|-------------------|-------------------|-------------------|
   

e|----------------|-------------------|-------------------|-------------------||
B|----------------|-------------------|-------------------|-------------------||
G|-2--------------|-------------------|-----------------2-|-(2)-------9--7--9-|| Guitar 2 
D|-2------------3-|-(3)-------------5-|-(5)-------5-4---2-|-(2)-2-----7--5--7-||
A|-0------------3-|-(3)-------------5-|-(5)-------3-2-0-0-|-(0)-0-0-0---------||
E|--------------1-|-(1)-------------3-|-(3)---------------|-------------------||
                                                      .           . . 

Pre-Verse

e|----------------|-------------------|-------------------|-------------------|
B|----------------|-------------------|-------------------|-------------------|
G|-2--------4---5-|-(5)---------5---7-|-(7)---------7---9-|-(9)-------9---9---|
D|-2--------2---3-|-(3)---------3---5-|-(5)---------5---7-|-(7)-------7---7---|
A|----0-0-0---0---|-----0-0-0-0---0---|-----0-0-0-0---0---|-----0-0-0---0---0-|
E|----------------|-------------------|-------------------|-------------------|
      . . .   .         . . . .   .         . . . .   .         . . .   .   .

e|----------------|-------------------|-------------------|-----------------||
B|----------------|-------------------|-------------------|-----------------||
G|-2--------4---5-|-(5)---------5---7-|-(7)-------------2-|-(2)-------------|| Guitar 1
D|-2--------2---3-|-(3)---------3---5-|-(5)-------5-4---2-|-(2)-2-----2-2---||
A|----0-0-0---0---|-----0-0-0-0---0---|-----0-0-0-3-2-0-0-|-(0)-0-0-0-0-0---||
E|----------------|-------------------|-------------------|---------------3-||
      . . .   .         . . . .   .         . . .     .           . .     ~


e|----------------|-------------------|-------------------|-------------------|
B|----------------|-------------------|-------------------|-------------------|
G|-2--------4---5-|-(5)---------5---7-|-(7)---------7---9-|-(9)-------5---0---|
D|-2--------2---3-|-(3)---------3---5-|-(5)---------5---7-|-(7)-------5---0---|
A|----0-0-0---0---|-----0-0-0-0---0---|-----0-0-0-0---0---|-----0-0-0---------|
E|----------------|-------------------|-------------------|-------------------|
      . . .   .         . . . .   .         . . . .   .         . . .

e|----------------|-------------------|-------------------|-----------------||
B|----------------|-------------------|-------------------|-----------------||
G|-2--------4---5-|-(5)---------5---7-|-(7)-------------2-|-(2)-------------|| Guitar 2
D|-2--------2---3-|-(3)---------3---5-|-(5)-------5-4---2-|-(2)-2-----2-2---||
A|----0-0-0---0---|-----0-0-0-0---0---|-----0-0-0-3-2-0-0-|-(0)-0-0-0-0-0---||
E|----------------|-------------------|-------------------|---------------3-||
      . . .   .         . . . .   .         . . .     .           . .     ~


Verse

e|----------------|-------------------|-------------------|-------------------|
B|----------------|-------------------|-------------------|-------------------|
G|-2--------4---5-|-(5)---------5---7-|-(7)---------7---9-|-(9)-------9---9---|
D|-2--------2---3-|-(3)---------3---5-|-(5)---------5---7-|-(7)-------7---7---|
A|----0-0-0---0---|-----0-0-0-0---0---|-----0-0-0-0---0---|-----0-0-0---0---0-|
E|----------------|-------------------|-------------------|-------------------|
      . . .   .         . . . .   .         . . . .   .         . . .   .   .

e|----------------|-------------------|-------------------|-------------------||
B|----------------|-------------------|-------------------|-------------------||
G|-2--------4---5-|-(5)---------5---7-|-(7)-------------2-|-(2)---------------|| Guitar 1
D|-2--------2---3-|-(3)---------3---5-|-(5)-------5-4---2-|-(2)-------2---4---||
A|----0-0-0---0---|-----0-0-0-0---0---|-----0-0-0-3-2-0-0-|-(0)-0-0-0-0-0-2-2-||
E|----------------|-------------------|-------------------|-------------------||
      . . .   .         . . . .   .         . . .     .         . . .   .   .


e|----------------|-------------------|-------------------|-------------------|
B|----------------|-------------------|-------------------|-------------------|
G|-2--------------|-(2)-------------7-|-(7)-------------9-|-(9)----------5--0-|
D|-2--------------|-(2)-------------5-|-(5)-------------7-|-(7)----------5--0-|
A|-0--------------|-(0)---------------|-------------------|-------------------|
E|----------------|-------------------|-------------------|-------------------|


e|----------------|-------------------|-------------------|-------------------|
B|----------------|-------------------|-------------------|-------------------|
G|-2--------------|-(2)-------------7-|-(7)-------------9-|-(9)----------5--0-| 
D|-2--------------|-(2)-------------5-|-(5)-------------7-|-(7)----------5--0-|
A|-0--------------|-(0)---------------|-------------------|-------------------|
E|----------------|-------------------|-------------------|-------------------|

e|----------------|-------------------|-------------------|-------------------|
B|----------------|-------------------|-------------------|-------------------|
G|-2--------4---5-|-(5)---------5---7-|-(7)---------7---9-|-(9)-------5---0---|
D|-2--------2---3-|-(3)---------3---5-|-(5)---------5---7-|-(7)-------5---0---|
A|----0-0-0---0---|-----0-0-0-0---0---|-----0-0-0-0---0---|-----0-0-0---------|
E|----------------|-------------------|-------------------|-------------------|
      . . .   .         . . . .   .         . . . .   .         . . .

e|----------------|-------------------|-------------------|-------------------||
B|----------------|-------------------|-------------------|-------------------||
G|-2--------4---5-|-(5)---------5---7-|-(7)-------------2-|-(2)---------------|| Guitar 2
D|-2--------2---3-|-(3)---------3---5-|-(5)-------5-4---2-|-(2)-------2---4---||
A|----0-0-0---0---|-----0-0-0-0---0---|-----0-0-0-3-2-0-0-|-(0)-0-0-0-0-0-2-2-||
E|----------------|-------------------|-------------------|-------------------||
      . . .   .         . . . .   .         . . .     .         . . .   .   .


Pre-Chorus

e|----------------|-------------------|---|-----||
B|----------------|-------------------|---|-----||
G|----------------|-------------------|---|-----|| Guitar 1
D|-5--5-----5---5-|-(5)-----5---5-----|-7-|-(7)-||
A|-3--3-3-3-3-3-3-|-(3)-3-3-3-3-3-3-3-|-5-|-(5--||
E|----------------|-------------------|---|-----||
        . .   .         . .   .   . .

e|----------------|-------------------|---|-----||
B|----------------|-------------------|---|-----||
G|----------------|-------------------|---|-----|| Guitar 2
D|-5--------------|-(5)---------------|-7-|-(7)-||
A|-3--------------|-(3)---------------|-5-|-(5--||
E|----------------|-------------------|---|-----||


Chorus

e|---|--------|-----|---|-----|-----------------------||
B|---|--------|-----|-3-|-(3)-|-----------------------||
G|-2-|-(2)----|-----|-2-|-(2)-|-2----2-4-5--4-2---2-4-|| Guitar 1
D|-2-|-(2)--3-|-(3)-|-0-|-(0)-|-2---------------5-----||
A|-0-|-(0)--3-|-(3)-|---|-----|-0---------------------||
E|---|------1-|-(1)-|---|-----|-----------------------||

e|---|--------|-----|---|-----|-----------------------||
B|---|--------|-----|-3-|-(3)-|----------5------------||
G|-2-|-(2)----|-----|-2-|-(2)-|-2----5-7----7-5-4-5-7-|| Guitar 2
D|-2-|-(2)--3-|-(3)-|-0-|-(0)-|-2---------------------||
A|-0-|-(0)--3-|-(3)-|---|-----|-0---------------------||
E|---|------1-|-(1)-|---|-----|-----------------------||


After Solo 1

e|----------------|-----------------|-
B|----------------|-----------------|-
G|----------------|-----------------|-           Guitar 1          
D|-2--------------|-----------------|-
A|-0--0-0-0-0-0-0-|-0-0-0-0-0-0-0-0-|-
E|----------------|-----------------|- and so on (repeat the second bar till end)
      . . . . . .   . . . . . . . .

e|----------------|-----------------|----------------|-----------------|--------------|--------------|--------------|-------------------||
B|----------------|-----------------|----------------|-----------------|--------------|--------------|--------------|-------------------||
G|----------------|-----------------|----------------|-----------9---9-|-(9)----9---7-|-(7)----7---R-|-5----0-0-0-2-|-(2)----2-2/4--4/5-|| Guitar 2
D|-2--------------|-----------------|-2--------------|-----------7---7-|-(7)----7---5-|-(5)----5-----|-3----0-0-0-2-|-(2)---------------||
A|-0--0-0-0-0-0-0-|-0-0-0-0-0-0-0-0-|-0--0-0-0-0-0-0-|-0-0-0-0-0---0---|----------0---|----------0---|--------------|-------------------||
E|----------------|-----------------|----------------|-----------------|--------------|--------------|--------------|-------------------||
      . . . . . .   . . . . . . . .      . . . . . .   . . . . .   .              .              .
     

Bridge 

e|-----------|------------|----------------|------------|----------------|------------|---||
B|-----------|------------|----------------|------------|----------------|------------|---||
G|-2-R---R---|------------|----------------|------------|-2------2---2---|------------|---|| Guitar 1
D|-2---5---3-|-(3)--------|-2--------------|-3------3-5-|-2------2---2---|-5----------|-3-||
A|-0---5---3-|-(3)--------|-2--------------|-3--3-3-3-5-|-0--0-0-0-0-0-0-|-5----------|-3-||
E|-----3---1-|-(1)--------|-0--------------|-1--1-1-1-3-|----------------|-3----------|-1-||
                                                . .          . .   .   .

e|-----------|------------|----------------|------------|----------------|------------|---||
B|-----------|------------|----------------|------------|----------------|------------|---||
G|-2-R---R---|------------|----------------|------------|-2------2---2---|-4----4h5p4-|---|| Guitar 2
D|-2---5---3-|-(3)--3-3---|-2--------------|-3------3-5-|-2------2---2---|------------|-3-||
A|-0---5---3-|-(3)--3-3-3-|-2------2---2---|-3--3-3-3-5-|-0--0-0-0-0-0-0-|------------|-3-||
E|-----3---1-|-(1)--1-1-1-|-0--0-0-0-0-0-0-|-1--1-1-1-3-|----------------|------------|-1-||
                        .      . .   .   .      . .          . .   .   .


Before Solo 2

e|-----------------|-----------------|-----------------|-----------------||
B|-----------------|-----------------|-----------------|-----------------||
G|-----------------|-----------------|-----------------|-----------------|| Guitar 1        
D|-2---------------|-----------------|-7-7-7-7-7-7-7-7-|-7-7-7-7-7-7-7-7-||
A|-0---0-0-0-0-0-0-|-0-0-0-0-0-0-0-0-|-0-0-0-0-0-0-0-0-|-0-0-0-0-0-0-0-0-||
E|-----------------|-----------------|-----------------|-----------------||


e|-----------------|-----------------|-----------------|-----------------||
B|-----------------|-----------------|-----------------|-----------------||
G|-----------------|-----------------|-2p0h2-----------|-X\--------------|| Guitar 2
D|-----------------|-----------------|-----------------|-X\--------------||
A|-0-0-0-0-0-0-0-0-|-0-0-0-0-0-0-0-0-|-----------------|-----------------||
E|-----------------|-----------------|-----------------|-----------------||
                                                         Pick Scrape


Outro

e|-5-7-8--7-5---5-7-|-5-||
B|------------8-----|---||
G|------------------|---|| Guitar 1
D|------------------|---|| 
A|------------------|---||
E|------------------|---||

e|------------------|---||
B|------------------|---||
G|-2-4-5--4-2---2-4-|-2-|| Guitar 2
D|------------5-----|---||
A|------------------|---||
E|------------------|---||



Solo 1 (for the rythm. part look at "Verse" riff)

e|--------------|-----|-----------------|--------------------|-----------------|-----------------------------------|------------------------------------|
B|--------------|-----|-----------------|--------------------|-----------------|-----------------------------------|---------10---10b-10b-10b-10b-10b-8-|
G|--------------|-----|-----------------|--------------------|-----------------|-5-7b--7b--5h7p5---5h7p5-------5---|-5-7/9------------------------------|
D|-7----7-7-7-7-|-(7)-|-7b--5---5-------|--------------------|-7-7-7----7-7--7-|-----------------7-------7-5-7---7-|-------7----7-----------------------|
A|--------------|-----|-------7---7-6-5-|---5b---------------|-----------------|-----------------------------------|------------------------------------|
E|--------------|-----|-----------------|-8-----5-5-5-8--5/8-|-----------------|-----------------------------------|------------------------------------|
   ~                          . . . . .   .     . . . ~            ~      ~

e|---------------------------|---------------------------------|------------------------------|-------------------------------------------------------||
B|-------10-12-13-12-10-8-10-|-10/16\10--12-13--13-12-12-10-10-|-----10-----10-----10-10b-----|-------------------------------------------------------||
G|-7h9p7---------------------|---------------------------------|-12b----12b----12b---------12-|-4h5p4h5p4h5p4h5p4h5p4h5p4h5p4h5p4h5p4h5p4h5p4h5p4-----||
D|---------------------------|---------------------------------|------------------------------|---------------------------------------------------5/7-||
A|---------------------------|---------------------------------|------------------------------|-------------------------------------------------------||
E|---------------------------|---------------------------------|------------------------------|-------------------------------------------------------||



Solo 2 (for the rythm. part look at "Chorus" riff)

e|----------------|-----------------------------|----------10b----10b--------|-------------------------|
B|----------------|--------------------------10-|-10--8-10------------10-8---|-------------------------|
G|-R-----7b--5-7b-|-(7)--7b-5----5-7-5-7-9-X----|--------------------------9-|-7b--5-7-7b--5-7-7b--5---|
D|----7-----------|-----------7------------X----|----------------------------|-----------------7b----7-|
A|----------------|-----------------------------|----------------------------|-------------------------|
E|----------------|-----------------------------|----------------------------|-------------------------|

e|-------------------------------------------------|-------------------------------------------------|
B|-15p10-13p10-15p10-13p10-15p10-13p10-15p10-13p10-|-15p10-13p10-15p10-13p10-15p10-13p10-15p10-13p10-|
G|-------------------------------------------------|-------------------------------------------------|
D|-------------------------------------------------|-------------------------------------------------|
A|-------------------------------------------------|-------------------------------------------------|
E|-------------------------------------------------|-------------------------------------------------|

e|-13p10-------------13p10-------------13p10-------|-13p10-------------13p10-------------13p10-------|
B|-------13p10-------------13p10-------------13p10-|-------13p10-------------13p10-------------13p10-|
G|-------------12p10-------------12p10-------------|-------------12p10-------------12p10-------------|
D|-------------------------------------------------|-------------------------------------------------|
A|-------------------------------------------------|-------------------------------------------------|
E|-------------------------------------------------|-------------------------------------------------|

e|-15p10-------------15p10-------------15p10-------|-15p10-------------15p10-------------15p10-------|
B|-------13p10-------------13p10-------------13p10-|-------13p10-------------13p10-------------13p10-|
G|-------------12p10-------------12p10-------------|-------------12p10-------------12p10-------------|
D|-------------------------------------------------|-------------------------------------------------|
A|-------------------------------------------------|-------------------------------------------------|
E|-------------------------------------------------|-------------------------------------------------|

e|-17--19b-17-|-17-19-20--19-17-----17-19--17-||
B|------------|-----------------20------------||
G|------------|-------------------------------||
D|------------|-------------------------------||
A|------------|-------------------------------||
E|------------|-------------------------------||




Description:
------------
p  -> pull-off
X  -> Dead note
h  -> hammer-on
.  -> palm mute
R  -> rest
() -> let ring
~  -> vibrato
/\ -> slide to
b  -> bend (and release)
Добавлено: 19.12.2015
Другие материалы по этой песне:
  • Аккорды и текст

Страница создана 19.12.2015
http://primanota.ru/night/gunpowder-treason-chords.htm
Привет, Гость.
Предлагаем пройти революционный курс по гитаре.
Подарок от PrimaNota.Ru, забирай!