PrimaNota.ru - самый крупный в мире бесплатный архив песенных текстов, аккордов, табулатур и нот


Niet - Zastave - таба, видео

Регистрация Запомнить меня
Войти через:  Facebook Google Twitter Vk Yandex Mail.ru

Niet - Zastave - таба, видео

Печатать
Просмотров: 113
Уроки эстрадного вокала в Санкт-Петербурге
0:00

e|--------------------------------------------------|
H|--------------------------------------------------|
G|--------------------5--5--5--4--5--4--5--4--------|
D|--7--5--7--5--7--5--5--5--5--4--5--4--5--4--7--7--|  
A|--7--5--7--5--7--5--3--3--3--2--3--2--3--2--7--7--|
E|--5--3--5--3--5--3--------------------------5--5--|

Sonce zahaja, mene je strah.
Hladni veter vzdiguje prah.
Spomini, asociacije, vizije prihodnosti.




0:13

e|--------------------|
H|--------------------|
G|--------------------|
D|--------------------|
A|--10-7-5-5-7-5-3-3--|
E|--8--5-3-3-5-3-1-1--|

Temne sence padajo na nas.
Zastave plapolajo v vetru.




0:25

e|--------------------------------------------------|
H|--------------------------------------------------|
G|--------------------5--5--5--4--5--4--5--4--------|
D|--7--5--7--5--7--5--5--5--5--4--5--4--5--4--7--7--|  
A|--7--5--7--5--7--5--3--3--3--2--3--2--3--2--7--7--|
E|--5--3--5--3--5--3--------------------------5--5--|

Proseče oči, polne solza
iščejo smisel tega sveta.
Volkovi - plen
krik sedanjosti.




0:33

e|--------------------|
H|--------------------|
G|--------------------|
D|--------------------|
A|--10-7-5-5-7-5-3-3--|
E|--8--5-3-3-5-3-1-1--|

Dolge kolone praznih besed.
Zastave plapolajo v vetru. 
Добавлено: 13.08.2013
Другие материалы по этой песне:
  • Аккорды и текст

Страница создана 02.06.2013
http://primanota.ru/niet/zastave-chords.htm
Привет, Гость.
Предлагаем пройти революционный курс по гитаре.
Подарок от PrimaNota.Ru, забирай!