PrimaNota.ru - самый крупный в мире бесплатный архив песенных текстов, аккордов, табулатур и нот


Nicolette Larson - Lotta Love - текст песни, бас-таба, видео

Регистрация Запомнить меня
Войти через:  Facebook Google Twitter Vk Yandex Mail.ru

Nicolette Larson - Lotta Love - текст песни, бас-таба, видео

Печатать
Просмотров: 126
Авторы музыки: Neil Young
Авторы текста: Neil Young
-----------------------------------------------------------------------------
                        LOTTA LOVE - Nicolette Larson
-----------------------------------------------------------------------------

http://en.wikipedia.org/wiki/Nicolette_Larson

Tabbed by: Matt Broback
E-mail: 37hambone@gmail.com

Tuning: E A D G

INTRO
|--------|--------|--------|------ss-|--------|--------|--------|--------|
|--------|--------|--------|---13331-|--------|--------|--------|----31--|
|--------|--------|--------|--3-----3|--------|--------|--------|-------4|
|1--11--1|1--11--1|1--11--1|1--------|1--11---|1--11---|1--11---|1-------|

VERSE 1
|--------|--------|--------|--------|--------|--------|--------|--------|
|--------|--------|--------|--------|--------|--------|--------|--------|
|---44--4|3--33---|4--44---|3--33--3|4--44---|3--33---|4--44--4|3--33--3|
|--------|--------|--------|--------|--------|--------|--------|--------|

CHORUS 1                                                               p
|--------|--------|--------|--------|--------|--------|--------|-------6-|
|--------|--------|--------|--------|--------|------33|6--6----|------s--|
|4--44--4|3--33--3|1--11--1|3--34-6-|4--44--4|6--666--|----6--6|4--44-4--|
|--------|--------|--------|--------|--------|--------|--------|---------|

BRIDGE
|--------|--------|--------|--------|
|--------|--------|--------|--------|
|4--44--4|3--33--3|4--44--4|3--33--3|
|--------|--------|--------|--------|

VERSE 2
|--------|--------|--------|--------|--------|--------|--------|--------|
|--------|--------|--------|--------|--------|--------|--------|--------|
|4--44--4|3--33--3|4--44--4|3--33--3|4--44--4|3--33--3|4--44--4|3--33--3|
|--------|--------|--------|--------|--------|--------|--------|--------|

CHORUS 2
|--------|--------|--------|--------|--------|--------|--------|--------|
|--------|--------|--------|--------|--------|------33|6--6----|--------|
|4--44--4|3--33--3|1--11--1|3--34-6-|4--44--4|6--666--|----6---|4-------|
|--------|--------|--------|--------|--------|--------|--------|--------|

SOLO
|--------|--------|--------|--------|--------|--------|--------|--------|
|--------|--------|--------|--------|--------|--------|----131-|------35|
|4--44--4|3--33--3|4--44--4|3--33--3|4--34--4|3--33--3|4--4---4|3--336--|
|--------|--------|--------|--------|--------|--------|--------|--------|

                                             s
|------ss-|------ss-|------ss-|-------10-|--17-s------|--------|
|6--6---65|3--3---31|---------|----3--10/|15--18------|--------|
|----6-6--|----3-3--|4--4---43|1--1------|----------35|6--6----|
|---------|---------|----4-4--|----------|---------6--|----6-64|

OUTRO
|--------|--------|--------|------ss-|--------|--------|--------|--------|
|--------|--------|--------|---13331-|--------|--------|--------|----31--|
|--------|--------|--------|--3-----3|--------|--------|--------|-------4|
|1--11---|1--11---|1--11---|1--------|1--11---|1--11---|1--11---|1-------|

|--------|--------|--------|--------|--------|--------|--------|--------|
|--------|--------|--------|--------|--------|--------|---1131-|--------|
|---44--4|3--33---|4--44--4|3--33--3|4--44--4|3--33--3|4-4----4|3--33--3|
|--------|--------|--------|--------|--------|--------|--------|--------|

                        p
|--------|--------|----10----|--------|--------|--------|--------|--------|
|--------|--------|----------|--------|--------|--------|----131-|--------|
|4--44--4|3--33--3|4-----8---|---33--3|4--44--4|3--33--3|4--4---4|3--33--3|
|--------|--------|---9---119|8-------|--------|--------|--------|--------|

                    p p
|--------|--------|-6-8----|--------|--------|--------|
|--------|--------|----3---|--------|--------|--------|
|4--44--4|3--33--3|4-6--643|---33--3|4--44--4|3--33--3|
|--------|--------|--------|--------|--------|--------|
Добавлено: 23.07.2013
Другие материалы по этой песне:
  • Аккорды и текст

Страница создана 01.03.2012
http://primanota.ru/nicolette-larson/lotta-love-chords.htm
Привет, Гость.
Предлагаем пройти революционный курс по гитаре.
Подарок от PrimaNota.Ru, забирай!