PrimaNota.ru - самый крупный в мире бесплатный архив песенных текстов, аккордов, табулатур и нот


Nicole C Mullins - On My Knees - аккорды и текст, видео

Регистрация Запомнить меня
Войти через:  Facebook Google Twitter Vk Yandex Mail.ru

Nicole C Mullins - On My Knees - аккорды и текст, видео

Печатать
Просмотров: 56
Уроки эстрадного вокала в Санкт-Петербурге
On My Knees
Nicole C Mullins
MHB
On My Knees
Nicole C. Mullen
Transcribed by: Jessie Marus (jessie@christianguitar.ws)

Capo 2

A A/F#

1-----------0-----------------------------------------0---------------|
2----------------------2-----------------------------------------0----|
3----1-h-2----------2-----2--------------------1-h-2----------2-------|
4---------------------------------------------------------------------|
5--0-------------0------------------------2---------------------------|
6-------------------------------------------------------2-------------|

E D A A add D

1---4-----4-h-5-----2-----------------------------------------------|
2-------5-----------------2-------------2---------3-----------2--3--|
3-----4----------------2-----2-----------------2-----------2--2--2--|
4---0---------------0-----------------------2-----------2-----------|
5-------------------------------------------------------------------|
6---------------------------------------0---------------------------|

E|-----------2-3-0-----------------------------------------------|
B|-----------------3-0---1-0-0-----------------------------------|
G|----3----3-----------2---0-0-----------------------------------|
D|---0----0------------------------------------------------------|
A|--4----4-------------------------------------------------------|
E|-3----0--------------------------------------------------------|

Intro: Tab x2 or

G|Em|C|D x2

G               Em
There are days, when I feel
     C               D
The best of me, is ready to begin
G                    Em
Then there're days, when I feel
     C               D              Em
I'm letting go, and soaring on the wind
                     D              C
But I've learned in laughter or in pain
         D
How to survive


Chorus:

Em     D      G     Em     D      G
I get on my knees, I get on my knees
Em       D             G         C
There I am before the love
  C           D
That changes me
Em               C               D
See I dont know how but there's power
            G
When I'm on my knees


G         Em
I can be, In a crowd
   C               D
Or by myself, or almost anywhere
G             Em
When I feel, there's a need
    C                D          Em
To talk with God, he is Emmanuel
                 D                C
When I close my eyes no darkness there
              D     Am7
There's only light


Chorus:

 Em     D      G     Em     D      G
I get on my knees, I get on my knees
Em       D             G         C
There I am before the love
  C           D
That changes me


Bridge:

    Em           C               D
See I dont know how but there's power
        C
In the blue skys
Em           C               D
I dont know how but there's power
        C
In the midnight
Em           C               D
I dont know how but there's power
         G            Em
When I'm on my knees


Chorus:

 Em     D      G     Em     D      G
I get on my knees, I get on my knees
Em       D             G         C
There I am before the love
  C           D
That changes me
Em                            C
I dont know how but there's power
Em                   C             D
I dont know how but God gives me power
Em                           C
I dont know how but there's power
         D      G
When I'm on my knees


Tab x5 or G|Em|C|D x5 and fade
Добавлено: 28.05.2016
Другие материалы по этой песне:
  • Аккорды и текст

Страница создана 28.05.2016
http://primanota.ru/nicole-c-mullins/on-my-knees-chords.htm
Привет, Гость.
Предлагаем пройти революционный курс по гитаре.
Подарок от PrimaNota.Ru, забирай!