PrimaNota.ru - самый крупный в мире бесплатный архив песенных текстов, аккордов, табулатур и нот


Nicole C Mullen - My Redeemer Lives - таба, видео

Регистрация Запомнить меня
Войти через:  Facebook Google Twitter Vk Yandex Mail.ru

Nicole C Mullen - My Redeemer Lives - таба, видео

Печатать
Просмотров: 65
"My Redeemer Lives"   -Nicole C Mullen-
-----------------------------------------------
tabbed by deedewu

written in 4/4 but feels like 2/2

OK, so obviously I didn't tab the whole song, but here's the intro
and basic verse tab.  There are other tabs out there with chords for
the whole song (i think?), you can look them up, or figure it out from
here, its pretty simple.


Intro:
  G                Cadd2            D
E|----------------|----------------|----------------|----------------|
B|--------3-------|--------3-------|------3-3-3---3-|3---------------|
G|------------0---|------0-----2-0-|------2-2-2---0-|2---------------|
D|------0-------0-|----2-----------|0-----0-0-0---0-|0---------------|
A|----2-----------|3---------------|----------------|----------------|
E|3---------------|----------------|----------------|----------------|
                                                             Who.. 

Verse:
  G                Cadd2            Dsus2
E|----------------|----------------|--------0-------|----------------|
B|--------3-------|--------3-------|------3-------3-|--------3---3---|
G|------------0---|------0-----2-0-|----2-----------|2-------2---2---|
D|------0-------0-|----2-----------|0---------------|--------0---0---|
A|----2-----------|3---------------|----------------|----------------|
E|3---------------|----------------|----------------|----------------|


  G                Cadd2            D
E|----------------|----------------|--------2-0-----|----------------|
B|--------3-------|--------3-------|------3-------3-|------3---------|
G|------------0---|------0-----2-0-|--------------2-|------0---------|
D|------0-------0-|----2-----------|0---------------|----------4-2-0-|
A|----2-----------|3---------------|----------------|----------------|
E|3---------------|----------------|----------------|----------------|


  Cadd2            B7                                Cadd2
E|----------------|----------------|----------------|----------------|
B|--------3-------|------4---4---4-|----------------|--------3-------|
G|------0-----2-0-|------2---2---2-|------2-------2-|------0-----0---|
D|----2-----------|----------------|----4-------4---|----2-----2-----|
A|3---------------|2---------------|2-------2-------|3---------------|
E|----------------|----------------|----------------|----------------|


  G                Cadd2            D
E|----------------|----------------|--------2-----0-|----------------|
B|--------3-------|--------3-------|------3-------3-|--3---3---3---3-|
G|------------0---|------0-----2-0-|----2-----------|--2---0-------0-|
D|------0-------0-|----2-----------|0---------------|----------4-----|
A|----2-----------|3---------------|----------------|----------------|
E|3---------------|----------------|----------------|----------------|

---------------
copyright 1998 by deedewu

     
Добавлено: 27.08.2013
Вам также может быть интересно:
Другие материалы по этой песне:
  • Аккорды и текст

Страница создана 27.08.2013
http://primanota.ru/nicole-c-mullen/my-redeemer-lives-chords.htm
Привет, Гость.
Предлагаем пройти революционный курс по гитаре.
Подарок от PrimaNota.Ru, забирай!