PrimaNota.ru - самый крупный в мире бесплатный архив песенных текстов, аккордов, табулатур и нот


Nico - The Last Mile - аккорды и текст, видео

Регистрация Запомнить меня
Войти через:  Facebook Google Twitter Vk Yandex Mail.ru

Nico - The Last Mile - аккорды и текст, видео

Печатать
Просмотров: 219
Уроки эстрадного вокала в Санкт-Петербурге
The Last Mile
Nico
-------------------------------------------------------------------------------
                                 THE LAST MILE - Nico
-------------------------------------------------------------------------------

jimmy page plays guitar on this record. he uses some kind of special tuning, therefore i made
a tab in standard tuning to make things a little easier.


Fig.1
e|--3-3---0---0-0-------|
B|--2-2-0-1---1-1-0-----|
G|--3-3-0-0---0-0-0-----|
D|--0-0-0-2---2-2-0-----|
A|--------3---3-3-------|
E|--------3---3-3-------|


Fig.2
e|----------------------------------|
B|---1-1-1-1-1-1--1-1-1-1-1-1-3-----|
G|---0-0-0-0-0-0--0-0-0-0-0-0-0-----|
D|---2-2-2-0-0-2--2-2-2-0-0-2-4-----|
A|---3-3-3-2-2-0--3-3-3-2-2-3-5-----|
E|----------------------------5-----|




INTRO

Fig.1  x2

D                    C/G
rivers were made for flowing 
D                     C/G
  so why not let them flow?
D                    C/G
people were made for showing 
D                     C/G
  so why not let them show?

Bm              C
  show a little laughter
Bm              C
  show a little smile
         C   Bm   Am  C  Bm  C    D    
Добавлено: 17.08.2013
Другие материалы по этой песне:
  • Аккорды и текст

Страница создана 17.08.2013
http://primanota.ru/nico/the-last-mile-chords.htm
Привет, Гость.
Предлагаем пройти революционный курс по гитаре.
Подарок от PrimaNota.Ru, забирай!