PrimaNota.ru - самый крупный в мире бесплатный архив песенных текстов, аккордов, табулатур и нот


Nickelback - So Hard To Swallow - таба, видео

Регистрация Запомнить меня
Войти через:  Facebook Google Twitter Vk Yandex Mail.ru

Nickelback - So Hard To Swallow - таба, видео

Печатать
Просмотров: 139
e------------------------------------------|
B------------------------------------------|
D------------------------------------------|
G-2-2-2-2-2-2-2-2-2-2-2-2-2-2-2-2-2-2-2-2--|
A------------------------------------------|
E--0-0-0-0-0-0-0-0-0-0-0-0-0-0-0-0-0-0-0-0-|

 You play this part for the beginning, you'll have to figure out the rythm that you have 
to play it in.

e-----------------------------------------|
B-----------------------------------------|
D-----------------------------------------|
G-2-2-2-2-2-2-2-2-2-2-2-2-2-2-2-2-2-2-2-2-|
A-2-2-2-2-2-2-2-2-2-2-2-2-2-2-2-2-2-2-2-2-|
E-----------------------------------------|

You play this acoustic part for a bit, again, you'll need to find the correct rythm, but
this goes for a little bit.

e-------------------------------------------------|
B-------------------------------------------------|
D-------------------------------------------------|
G-2-2-2-2-2-2-2-2-5-5-5-5-5-5-5-5-0-0-0-0-0-0-0-0-|
A-2-2-2-2-2-2-2-2-5-5-5-5-5-5-5-5-0-0-0-0-0-0-0-0-|
E-----------------3-3-3-3-3-3-3-3-0-0-0-0-0-0-0-0-|

You play this acoustic part palm muted for awhile, this part is also the main chorus to
the song, and is played throughout the song on acoustic and electric guitar.


 Well thats mostly it! "So Hard To Swallow" by Nickelback, tabbed by "Al", sent to
www.ultimateguitar.com . Have fun and enjoy!
Добавлено: 29.11.2013
Другие материалы по этой песне:
  • Аккорды и текст

Страница создана 29.11.2013
http://primanota.ru/nickelback/so-hard-to-swallow-chords.htm
Привет, Гость.
Предлагаем пройти революционный курс по гитаре.
Подарок от PrimaNota.Ru, забирай!