PrimaNota.ru - самый крупный в мире бесплатный архив песенных текстов, аккордов, табулатур и нот


Nickelback - Sister Sin - таба, видео

Регистрация Запомнить меня
Войти через:  Facebook Google Twitter Vk Yandex Mail.ru

Nickelback - Sister Sin - таба, видео

Печатать
Просмотров: 432
Track 11 from No Fixed Address

E standard   Low to High: (E,A,D,G,B,e)

Guitar 1: Acoustic Rhythm
Guitar 2: Distorted Rhythm
Guitar 3: Distorted Lead w/Slide

Intro:
0:00

Guitar 1
1---------------------------------------------------------------------|
2---------------------------------------------------------------------|
3---------------------------------------------------------------------|
4-----------5-x-xx-----------5-x-xx-----------5-x-xx-----------5-x-xx-|
5--5h77---5---x-xx--5h77---5---x-xx--5h77---5---x-xx--5h77---5---x-xx-|
6-------3-----x-xx-------3-----x-xx-------3-----x-xx-------3-----x-xx-|

Guitar 3
1----------------------------------------------------------------|
2----------------------------------------------------------------|
3---9--7--7--9--------------------9--7--7--9---------------------|
4-------9------------7-9-7------------9-------------7-9-7--------|
5-----------------10--------10-7-----------------10--------10-7--|
6----------------------------------------------------------------|

Verse:
0:09

Guitar 1
1---------------------------------------------------------------------|
2---------------------------------------------------------------------|
3---------------------------------------------------------------------|
4-----------5-x-xx-----------5-x-xx-----------5-x-xx-----------5-x-xx-|
5--5h77---5---x-xx--5h77---5---x-xx--5h77---5---x-xx--5h77---5---x-xx-|
6-------3-----x-xx-------3-----x-xx-------3-----x-xx-------3-----x-xx-|

1---------------------------------------------------------------------|
2---------------------------------------------------------------------|
3---------------------------------------------------------------------|
4-----------5-x-xx-----------5-x-xx-----------5-x-xx-----------5-x-xx-|
5--5h77---5---x-xx--5h77---5---x-xx--5h77---5---x-xx--5h77---5---x-xx-|
6-------3-----x-xx-------3-----x-xx-------3-----x-xx-------3-----x-xx-|

1------------------------------------------------------------------------------------------|
2------------------------------------------------------------------------------------------|
3------------------------------------------------------------------------------------------|
4-----------5-xx-x-x-xx-----------5-xx-x-x-xx-----------5-xx-x-x-xx-----------5-xx-x-x-xx--|
5--5h77---5---xx-x-x-xx--5h77---5---xx-x-x-xx--5h77---5---xx-x-x-xx--5h77---5---xx-x-x-xx--|
6-------3-----xx-x-x-xx-------3-----xx-x-x-xx-------3-----xx-x-x-xx-------3-----xx-x-x-xx--|

1------------------------------------------------------------------------------------------|
2------------------------------------------------------------------------------------------|
3------------------------------------------------------------------------------------------|
4-----------5-xx-x-x-xx-----------5-xx-x-x-xx-----------5-xx-x-x-xx-----------5-xx-x-x-xx--|
5--5h77---5---xx-x-x-xx--5h77---5---xx-x-x-xx--5h77---5---xx-x-x-xx--5h77---5---xx-x-x-xx--|
6-------3-----xx-x-x-xx-------3-----xx-x-x-xx-------3-----xx-x-x-xx-------3-----xx-x-x-xx--|

Pre-Chorus:
0:47
No Guitars

Chorus:
0:51

Guitar 1
1----------------------------------------------|
2----------------------------------------------|
3----------------------------------------------|
4-----------5-xx-x-x-xx-----------5-xx-x-x-xx--| X4
5--5h77---5---xx-x-x-xx--5h77---5---xx-x-x-xx--|
6-------3-----xx-x-x-xx-------3-----xx-x-x-xx--|

Guitar 2
1----------------------------------------------|
2----------------------------------------------|
3-55555555-------------------------------------|
4-55555555-55555555-7777777777777777-----------| X2
5-33333333-55555555-7777777777777777-----------|
6----------33333333-5555555555555555-----------|

Guitar 3
1----------------------------------------------|
2-/10\8/10\8/10/12\10\8-/10\8/10\8/10/12\10\8--|
3----------------------------------------------|
4----------------------------------------------| X4
5----------------------------------------------|
6----------------------------------------------|

Post-Chorus:
1:10

Guitar 1
1---------------------------------------------------------------------|
2---------------------------------------------------------------------|
3---------------------------------------------------------------------|
4-----------5-x-xx-----------5-x-xx-----------5-x-xx-----------5-x-xx-|
5--5h77---5---x-xx--5h77---5---x-xx--5h77---5---x-xx--5h77---5---x-xx-|
6-------3-----x-xx-------3-----x-xx-------3-----x-xx-------3-----x-xx-|

Guitar 3
1----------------------------------------------------------------|
2----------------------------------------------------------------|
3---9--7--7--9--------------------9--7--7--9---------------------|
4-------9------------7-9-7------------9-------------7-9-7--------|
5-----------------10--------10-7-----------------10--------10-7--|
6----------------------------------------------------------------|

Verse:
1:20

Guitar 1
1------------------------------------------------------------------------------------------|
2------------------------------------------------------------------------------------------|
3------------------------------------------------------------------------------------------|
4-----------5-xx-x-x-xx-----------5-xx-x-x-xx-----------5-xx-x-x-xx-----------5-xx-x-x-xx--|
5--5h77---5---xx-x-x-xx--5h77---5---xx-x-x-xx--5h77---5---xx-x-x-xx--5h77---5---xx-x-x-xx--|
6-------3-----xx-x-x-xx-------3-----xx-x-x-xx-------3-----xx-x-x-xx-------3-----xx-x-x-xx--|

1------------------------------------------------------------------------------------------|
2------------------------------------------------------------------------------------------|
3------------------------------------------------------------------------------------------|
4-----------5-xx-x-x-xx-----------5-xx-x-x-xx-----------5-xx-x-x-xx-----------5-xx-x-x-xx--|
5--5h77---5---xx-x-x-xx--5h77---5---xx-x-x-xx--5h77---5---xx-x-x-xx--5h77---5---xx-x-x-xx--|
6-------3-----xx-x-x-xx-------3-----xx-x-x-xx-------3-----xx-x-x-xx-------3-----xx-x-x-xx--|

Pre-Chorus:
1:39
No Guitars

Chorus:
1:43

Guitar 1
1----------------------------------------------|
2----------------------------------------------|
3----------------------------------------------|
4-----------5-xx-x-x-xx-----------5-xx-x-x-xx--| X4
5--5h77---5---xx-x-x-xx--5h77---5---xx-x-x-xx--|
6-------3-----xx-x-x-xx-------3-----xx-x-x-xx--|

Guitar 2
1----------------------------------------------|
2----------------------------------------------|
3-55555555-------------------------------------|
4-55555555-55555555-7777777777777777-----------| X2
5-33333333-55555555-7777777777777777-----------|
6----------33333333-5555555555555555-----------|

Guitar 3
1----------------------------------------------|
2-/10\8/10\8/10/12\10\8-/10\8/10\8/10/12\10\8--|
3----------------------------------------------|
4----------------------------------------------| X4
5----------------------------------------------|
6----------------------------------------------|

Bridge:
2:02

All Guitars
1-------------------|
2-------------------|
3---9~~~~~----------|
4---9~~~~~----------|
5---7~~~~~----------|
6---0~~~~~----------|

2:16
Guitar 2
1----------------------------------------|
2----------------------------------------|
3--x9x9x9x99x9x9x9x77x9x9x9x99x9x9x9x77--|
4--x9x9x9x99x9x9x9x77x9x9x9x99x9x9x9x77--|
5--x7x7x7x77x7x7x7x77x7x7x7x77x7x7x7x77--|
6----------------------------------------|

1----------------------------------------|
2----------------------------------------|
3--x9x9x9x99x9x9x9x77x9x9x9x99x9x9x9x77--|
4--x9x9x9x99x9x9x9x77x9x9x9x99x9x9x9x77--|
5--x7x7x7x77x7x7x7x77x7x7x7x77x7x7x7x77--|
6----------------------------------------|

2:26
Guitar 3
1----------------------------------------------------------------|
2----------------------------------------------------------------|
3---9--7--7--9--------------------9--7--7--9---------------------|
4-------9------------7-9-7------------9-------------7-9-7--------|
5-----------------10--------10-7-----------------10--------10-7--|
6----------------------------------------------------------------|

2:35
1-----------------------------------------|
2-----------------------------------------|
3-----------------------------------------|
4--7----7-9-7----7-9----------------------|
5----10-------10--------------------------|
6-----------------------------------------|

Chorus:
2:38

Guitar 1
1----------------------------------------------|
2----------------------------------------------|
3----------------------------------------------|
4-----------5-xx-x-x-xx-----------5-xx-x-x-xx--| X8
5--5h77---5---xx-x-x-xx--5h77---5---xx-x-x-xx--|
6-------3-----xx-x-x-xx-------3-----xx-x-x-xx--|

Guitar 2
1----------------------------------------------|
2----------------------------------------------|
3-55555555-------------------------------------|
4-55555555-55555555-7777777777777777-----------| X4
5-33333333-55555555-7777777777777777-----------|
6----------33333333-5555555555555555-----------|

Guitar 3
1----------------------------------------------|
2-/10\8/10\8/10/12\10\8-/10\8/10\8/10/12\10\8--|
3----------------------------------------------|
4----------------------------------------------| X8
5----------------------------------------------|
6----------------------------------------------|

3:15
All Guitars
1-------------------|
2-------------------|
3---9~~~~~----------|
4---9~~~~~----------|
5---7~~~~~----------|
6---0~~~~~----------|

END

Tab Legend
x= Mute String
/= Slide Down Neck
\= Slide Up Neck
~= Let Note Ring
h= Hammer On
Добавлено: 17.06.2015
Другие материалы по этой песне:
  • Аккорды и текст

Страница создана 17.06.2015
http://primanota.ru/nickelback/sister-sin-chords.htm
Привет, Гость.
Предлагаем пройти революционный курс по гитаре.
Подарок от PrimaNota.Ru, забирай!