PrimaNota.ru - самый крупный в мире бесплатный архив песенных текстов, аккордов, табулатур и нот


Nickelback - Next Go Round - текст песни, таба, видео

Регистрация Запомнить меня
Войти через:  Facebook Google Twitter Vk Yandex Mail.ru

Nickelback - Next Go Round - текст песни, таба, видео

Печатать
Просмотров: 393
----------------------------------------------------------------------------
                                                  Next Go Round - Nickelback
----------------------------------------------------------------------------

Hi, this my tab and I worked it out by ear so forgive me if it is wrong in any areas.

Tabed by: Dan
email: www.southpaw_satch@hotmail.co.uk
Tuning: Drop D Tuning

Key :-

  (10) bend to this note and release
  p - pull off
  h - hammer on
  x - Mutted Strum


Intro - Repeat x3

Guitar 1 :
   e-------------------------|
   b-------------------------|
   g-------------------------|
   d--8-x-x--8-x-x--8-x-x----|
   a--7-x-x--7-x-x--7-x-x----|
   d--8-x-x--8-x-x--8-x-x----|


Guitar 2 :
   e-----------------------------------------|
   b-----------------------------------------|
   g-----------------------------------------|
   d-----------------------------------------|
   a-------------------------8-8-8-7---------|
   d-------------------------6-6-6-5---------|

Guitar 1 :
   e---------------|
   b---------------|
   g---------------|
   d--8--8--8------|
   a--7--7--7------|
   d--8--8--8------|

Both Guitars :
   e--------------------|
   b--------------------|
   g--------------------|
   d--------------------|
   a--1p0h1h3---6-8-10--|
   d--1p0h1h3---6-8-10--|

Repeat x 2
   e---------------------------------------------------------------|
   b---------------------------------------------------------------|
   g---------------------------------------------------------------|
   d-0-0--8-x---8-x---8-x---8-8-8-10-------0-0--8-x---8-x---8-x----|
   a-0-0--7-x---7-x---7-x---8-8-8-10-------0-0--7-x---7-x---7-x----|
   d-0-0--8-x---8-x---8-x---8-8-8-10-------0-0--8-x---8-x---8-x----|


   e---------------------|
   b---------------------|
   g---------------------|
   d--8-3-1p0-1p0-1-3----|
   a--8-3-1p0-1p0-1-3----|
   d--8-3-1p0-1p0-1-3----|


Verse : 0:31
   e----------------------------------|
   b----------------------------------|
   g----------------------------------|
   d-8-8-8-10-------------------------|
   a-8-8-8-10-------------------------|
   d-8-8-8-10-------------------------|

0:36
   e------------------------------------------------------------------|
   b------------------------------------------------------------------|
   g------------------------------------------------------------------|
   d-8-8-8-10---0-0--8-x--8-x--8-x--8-8-8-10----0-0--8-x---8-x---8-x--|
   a-8-8-8-10---0-0--7-x--7-x--7-x--8-8-8-10----0-0--7-x---7-x---7-x--|
   d-8-8-8-10---0-0--8-x--8-x--8-x--8-8-8-10----0-0--8-x---8-x---8-x--|


   e---------------------|
   b---------------------|
   g---------------------|
   d--8-3-1p0-1p0-1-3----|
   a--8-3-1p0-1p0-1-3----|
   d--8-3-1p0-1p0-1-3----|

0:48
   e----------------------------------|
   b----------------------------------|
   g----------------------------------|
   d-8-8-8-10-------------------------|
   a-8-8-8-10-------------------------|
   d-8-8-8-10-------------------------|

0:53
   e----------------------------------------------------------------|
   b----------------------------------------------------------------|
   g----------------------------------------------------------------|
   d-8-8-8-10-----8-x--8-x--8-x------------8-x--8-x--8-x------------|
   a-8-8-8-10-----7-x--7-x--7-x---8-8-8-7--7-x--7-x--7-x---8-8-8-7--|
   d-8-8-8-10-----8-x--8-x--8-x---6-6-6-5--8-x--8-x--8-x---6-6-6-5--|


Chorus : 1:01

Guitar 1
   e----------------------------------|
   b----------------------------------|
   g----------------------------------|
   d----------------------------------|
   a-6-6-6-7--------------------------|
   d-8-8-8-5--------------------------|

Guitar 2
   e---------------------------------|
   b---------------------------------|
   g---------------------------------|
   d---------------------------------|
   a-----------6-6-6-7---------------|
   d-----------8-8-8-5---------------|


Guitar 1
   e----------------------------------|
   b----------------------------------|
   g----------------------------------|
   d----------------------------------|
   a-6-6-6-7--------------------------|
   d-8-8-8-5--------------------------|

Guitar 2
   e---------------------------------|
   b---------------------------------|
   g---------------------------------|
   d---------------------------------|
   a---------------------------------|
   d-----------8-(9)-----------------|

Both Guitars : x8
   e----------------------------|
   b----------------------------|
   g----------------------------|
   d-10-10-10--6-8--3---8-8-8-8-|
   a-10-10-10--6-8--3---8-8-8-8-|
   d-10-10-10--6-8--3---8-8-8-8-|
         C    Ab Bb F     Bb

   e---------------------------------------------------------------|
   b---------------------------------------------------------------|
   g---------------------------------------------------------------|
   d-0-0--8-x---8-x---8-x---8-8-8-10-------0-0--8-x---8-x---8-x----|
   a-0-0--7-x---7-x---7-x---8-8-8-10-------0-0--7-x---7-x---7-x----|
   d-0-0--8-x---8-x---8-x---8-8-8-10-------0-0--8-x---8-x---8-x----|


   e---------------------|
   b---------------------|
   g---------------------|
   d--8-3-1p0-1p0-1-3----|
   a--8-3-1p0-1p0-1-3----|
   d--8-3-1p0-1p0-1-3----|

2nd Verse : See Verse above

Chorus : 2:08

Guitar 1
   e----------------------------------|
   b----------------------------------|
   g----------------------------------|
   d----------------------------------|
   a-6-6-6-7--------------------------|
   d-8-8-8-5--------------------------|

Guitar 2
   e---------------------------------|
   b---------------------------------|
   g---------------------------------|
   d---------------------------------|
   a-----------6-6-6-7---------------|
   d-----------8-8-8-5---------------|


Guitar 1
   e----------------------------------|
   b----------------------------------|
   g----------------------------------|
   d----------------------------------|
   a-6-6-6-7--------------------------|
   d-8-8-8-5--------------------------|

Guitar 2
   e---------------------------------|
   b---------------------------------|
   g---------------------------------|
   d---------------------------------|
   a---------------------------------|
   d-----------8-(9)-----------------|

Both Guitars : x8
   e----------------------------|
   b----------------------------|
   g----------------------------|
   d-10-10-10--6-8--3---8-8-8-8-|
   a-10-10-10--6-8--3---8-8-8-8-|
   d-10-10-10--6-8--3---8-8-8-8-|
         C    Ab Bb F     Bb

Guitar 1 :
   e-------------------------|
   b-------------------------|
   g-------------------------|
   d--8-x-x--8-x-x--8-x-x----|
   a--7-x-x--7-x-x--7-x-x----|
   d--8-x-x--8-x-x--8-x-x----|


Guitar 2 :
   e-----------------------------------------|
   b-----------------------------------------|
   g-----------------------------------------|
   d-----------------------------------------|
   a-------------------------8-8-8-7---------|
   d-------------------------6-6-6-5---------|

Both Guitars :
   e-------------------------|
   b-------------------------|
   g-------------------------|
   d--8-x-x--8-x-x--8-x-x----|
   a--7-x-x--7-x-x--7-x-x----|
   d--8-x-x--8-x-x--8-x-x----|

Solo :
   e----------------------------------------------------------------|
   b---------------------------------------------------------8(9)---|
   g---------------------------8-10p8----------------8-10p8--8(9)---|
   d---------1-(2)/3------8-10-------10p8h10-----8-10------10-------|
   a-1-(2)/3--------------------------------------------------------|
   d----------------------------------------------------------------|


   e-----------------------------------------------------------------|
   b-----------------------------------------------------------------|
   g-----8-10p8--8h10p8---8h10p8---8h10p8--8h10p8--8h10p8------------|
   d-8-10------10-------10-------10-------10------10------10---------|
   a-----------------------------------------------------------------|
   d-----------------------------------------------------------------|


   e------------11h13p11------------------11h13p11-----------|
   b-------11h13--------13p11h13-------11---------13p11h13---|
   g-10h12--------------------------12-----------------------|
   d---------------------------------------------------------|
   a---------------------------------------------------------|
   d---------------------------------------------------------|

         x6
   e-----------------------|
   b-----------------------|
   g-10(11)p8--------------|
   d---------10p8h10-------|
   a-----------------------|
   d-----------------------|


          x2
   e------------------------------|
   b------------------------------|
   g---10(11)*--10(11)*--10(11)*--|
   d------------------------------|
   a------------------------------|
   d------------------------------|


   e--------------------------------------------------|
   b---10-10---10-10---10-10---10(11)-10-8-8----------|
   g---10-10---10-10---10-10---10(11)-10-8-8----------|
   d--------------------------------------------------|
   a--------------------------------------------------|
   d--------------------------------------------------|


   e---13(15)-------13(15)-13(15)-13(15)-13(15)-------|
   b---------------------------------------------13---|
   g--------------------------------------------------|
   d--------------------------------------------------|
   a--------------------------------------------------|
   d--------------------------------------------------|


Chorus - 3:08 - see Chorus

Outro -

Guitar 1 :
   e-------------------------|
   b-------------------------|
   g-------------------------|
   d--8-x-x--8-x-x--8-x-x----|
   a--7-x-x--7-x-x--7-x-x----|
   d--8-x-x--8-x-x--8-x-x----|


Guitar 2 :
   e-----------------------------------------|
   b-----------------------------------------|
   g-----------------------------------------|
   d-----------------------------------------|
   a-------------------------8-8-8-7---------|
   d-------------------------6-6-6-5---------|

Guitar 1 :
   e-------------------------|
   b-------------------------|
   g-------------------------|
   d--8-x-x--8-x-x--8-x-x----|
   a--7-x-x--7-x-x--7-x-x----|
   d--8-x-x--8-x-x--8-x-x----|


Guitar 2 :
   e-----------------------------------------|
   b-----------------------------------------|
   g-----------------------------------------|
   d-----------------------------------------|
   a-------------------------8-8-8-7---------|
   d-------------------------6-6-6-5---------|

Both Guitars :
   e-------------------------|
   b-------------------------|
   g-------------------------|
   d--8-x-x--8-x-x--8-x-x----|
   a--7-x-x--7-x-x--7-x-x----|
   d--8-x-x--8-x-x--8-x-x----|


   e-----------------------------------------|
   b-----------------------------------------|
   g-----------------------------------------|
   d-----------------------------------------|
   a-------------------------8-8-8-7---------|
   d-------------------------6-6-6-5---------|


   e-------------------------|
   b-------------------------|
   g-------------------------|
   d--8-x-x--8-x-x--8-x-x----|
   a--7-x-x--7-x-x--7-x-x----|
   d--8-x-x--8-x-x--8-x-x----|
Добавлено: 29.04.2012
Другие материалы по этой песне:

Страница создана 29.04.2012
http://primanota.ru/nickelback/next-go-round-chords.htm
Привет, Гость.
Предлагаем пройти революционный курс по гитаре.
Подарок от PrimaNota.Ru, забирай!