PrimaNota.ru - самый крупный в мире бесплатный архив песенных текстов, аккордов, табулатур и нот


Nickel Creek - Pastures New - текст песни, таба, видео

Регистрация Запомнить меня
Войти через:  Facebook Google Twitter Vk Yandex Mail.ru

Nickel Creek - Pastures New - текст песни, таба, видео

Печатать
Просмотров: 91
Авторы музыки: Sean Watkins

Pastures New
NickelCreek
NickelCreek
Transcribed by James Delos Reyes (Ensomniac3@aol.com)

   Em
e|------------------------------------------------------0------|
B|--------------------0---------------------------0--3---------|
G|--------------0--2-----0------------------0--2---------------|
D|--------2--4--------------4---------2--4---------------------|
A|-----2---------------------------2---------------------------|
E|--0---------------------------0------------------------------|

  A
 |-----------0-----------0------------0------------------------|
 |--------3-----------3------------2-----------0---------------|
 |-----4-----------4------------2-----------0-----0------------|
 |-------------------------------------------------------------|
 |--0-----------0------------0-----------0---------------------|
 |-------------------------------------------------------------|

  Em
 |------------------------------------------------------0------|
 |--------------------0---------------------------0--3---------|
 |--------------0--2-----0------------------0--2---------------|
 |--------2--4--------------4---------2--4---------------------|
 |-----2---------------------------2---------------------------|
 |--0---------------------------0------------------------------|

  A
 |-----------0-----------0------------0------------------------|
 |--------3-----------3------------2---------------------------|
 |-----4-----------4------------2------------------------------|
 |-------------------------------------------------------------|
 |--0-----------0------------0-----------0---------------------|
 |-------------------------------------------------------------|

    C        G               D          A     G/B
 |--0----------------------------------------------------------|
 |--------3--0-------------------------------------------------|
 |-----0--------0-----2-0-2-----2--0---------------------------|
 |-----------------0---------0--------2-----2----0-------------|
 |--3------------------------------------0-----2---------------|
 |-----------3-------------------------------------------------|


    C        G               D              E    A
 |--0---------------------------------0------------------------|
 |--------3--0---------------------3---------------------------|
 |-----0--------0-----2-0-2-----2-----------1-----2------------|
 |-----------------0---------0-----------0-----2---------------|
 |--3----------------------------------------------------------|
 |-----------3-------------------------------------------------|

    D/F#     G        Em    D/F#  G    A   D/F#    G
 |-------------------------------------------------------------|
 |-------------------------------------------------------------|
 |--2-----2--4-----4--0-----2-----4----6---2-------4-------4---|
 |-----0-----0--0-------2-----0---------------0-------0------0-|
 |-------------------------------------------------------------|
 |--2--------3--------0-----2-----3----5---2----2--3-----3-----|

   Em       D/F#   G          A              E     A
 |-------------------------0-----------------------------------|
 |----------------------3--------3--2--------------------------|
 |--0--------2-----4--4----------------2-----1-----2-----------|
 |-----2--------0-------------------------------2--------------|
 |----------------------------0-----------0--------------------|
 |--0-----2--2-----3-------------------------------------------|

    D/F#     G        Em    D/F#  G    A   D/F#    G
 |-------------------------------------------------------------|
 |--------------------------------------2----------0-----0-----|
 |--2-----2--4-----4--0-----2-----4--4-----2---------0-----0---|
 |-----0-----0--0-------2-----0---------------0--------0-----0-|
 |--------------------------------------0----------------------|
 |--2--------3--------0-----2-----3--4-----2----2--3-----------|

    Em       G                Bm  A  G    D/F#  B
 |----------------------------------------------------0---------|
 |------------------0--2--3---3---2---------------------4-------|
 |--0---------3-----------------0----4-----2--------4--------4--|
 |-----2---------4----------------------0--------4---------4---4|
 |--------2-------------------2---0------------2---------2------|
 |--0---------2----------------------3-----2--------------------|

  Em
 |------------------------------------------------------0------|
 |--------------------0---------------------------0--3---------|
 |--------------0--2-----0------------------0--2---------------|
 |--------2--4--------------4---------2--4---------------------|
 |-----2---------------------------2---------------------------|
 |--0---------------------------0------------------------------|

  A
 |-----------0-----------0------------0------------------------|
 |--------3-----------3------------2-----------0---------------|
 |-----4-----------4------------2-----------0-----0------------|
 |-------------------------------------------------------------|
 |--0-----------0------------0-----------0---------------------|
 |-------------------------------------------------------------|

  Em
 |------------------------------------------------------0------|
 |--------------------0---------------------------0--3---------|
 |--------------0--2-----0------------------0--2---------------|
 |--------2--4--------------4---------2--4---------------------|
 |-----2---------------------------2---------------------------|
 |--0---------------------------0------------------------------|

  A
 |-----------0-----------0------------0------------------------|
 |--------3-----------3------------2---------------------------|
 |-----4-----------4------------2------------------------------|
 |-------------------------------------------------------------|
 |--0-----------0------------0-----------0---------------------|
 |-------------------------------------------------------------|

    C        G               D          A     G/B
 |--0----------------------------------------------------------|
 |--------3--0-------------------------------------------------|
 |-----0--------0-----2-0-2-----2--0---------------------------|
 |-----------------0---------0--------2-----2----0-------------|
 |--3------------------------------------0-----2---------------|
 |-----------3-------------------------------------------------|

    C        G               D                   
 |--0---------------------------------0------------------------|
 |--------3--0---------------------3--------0------------------|
 |-----0--------0-----2-0-2-----2--------------2--0------------|
 |-----------------0---------0-----------0---------------------|
 |--3----------------------------------------------------------|
 |-----------3-------------------------------------------------|

    C        G               D              E    A
 |--0---------------------------------0------------------------|
 |--------3--0---------------------3---------------------------|
 |-----0--------0-----2-0-2-----2-----------1-----2------------|
 |-----------------0---------0-----------0-----2---------------|
 |--3----------------------------------------------------------|
 |-----------3-------------------------------------------------|

    D/F#     G        Em    D/F#  G    A   D/F#    G
 |-------------------------------------------------------------|
 |-------------------------------------------------------------|
 |--2-----2--4-----4--0-----2-----4----6---2-------4-------4---|
 |-----0-----0--0-------2-----0---------------0-------0------0-|
 |-------------------------------------------------------------|
 |--2--------3--------0-----2-----3----5---2----2--3-----3-----|

   Em       D/F#   G          A              E     A
 |-------------------------0-----------------------------------|
 |----------------------3--------3--2--------------------------|
 |--0--------2-----4--4----------------2-----1-----2-----------|
 |-----2--------0-------------------------------2--------------|
 |----------------------------0-----------0--------------------|
 |--0-----2--2-----3-------------------------------------------|

    D/F#     G        Em    D/F#  G    A   D/F#    G
 |-------------------------------------------------------------|
 |--------------------------------------2----------0-----0-----|
 |--2-----2--4-----4--0-----2-----4--4-----2---------0-----0---|
 |-----0-----0--0-------2-----0---------------0--------0-----0-|
 |--------------------------------------0----------------------|
 |--2--------3--------0-----2-----3--4-----2----2--3-----------|

    Em       G                Bm  A  G    D/F#  B
 |----------------------------------------------------0---------|
 |------------------0--2--3---3---2---------------------4-------|
 |--0---------3-----------------0----4-----2--------4--------4--|
 |-----2---------4----------------------0--------4---------4---4|
 |--------2-------------------2---0------------2---------2------|
 |--0---------2----------------------3-----2--------------------|

    C           D           Em            C
 |-----------------------3-------------------------------------|
 |-----------3-----3-------------------------------3-----------|
 |--------0-----------2--------------0----------0--------------|
 |-----2--------0-----------------2----------2-----------------|
 |--3--------------------------2----------3--------------------|
 |--------------------------0----------------------------------|

    C           D          A7sus Dsus C G/B
 |-----------------------3---3--3--3--3------------------------|
 |-----------3-----3---------3--3--3--3------------------------|
 |--------0-----------2------0--0--0--0------------------------|
 |-----2--------0------------2--0--2--0------------------------|
 |--3------------------------------3--2------------------------|
 |-------------------------------------------------------------|

    C           D          A7sus Dsus C G/B
 |-----------------------3---0--0--0--0------------------------|
 |-----------3-----3---------3--3--3--3------------------------|
 |--------0-----------2------0--0--0--0------------------------|
 |-----2--------0------------2--0--2--0------------------------|
 |--3------------------------------3--2------------------------|
 |-------------------------------------------------------------|

  Em
 |------------------------------------------------------0------|
 |--------------------0---------------------------0--3---------|
 |--------------0--2-----0------------------0--2---------------|
 |--------2--4--------------4---------2--4---------------------|
 |-----2---------------------------2---------------------------|
 |--0---------------------------0------------------------------|

  A
 |-----------0-----------0------------0------------------------|
 |--------3-----------3------------2-----------0---------------|
 |-----4-----------4------------2-----------0-----0------------|
 |-------------------------------------------------------------|
 |--0-----------0------------0-----------0---------------------|
 |-------------------------------------------------------------|

  Em
 |------------------------------------------------------0------|
 |--------------------0---------------------------0--3---------|
 |--------------0--2-----0------------------0--2---------------|
 |--------2--4--------------4---------2--4---------------------|
 |-----2---------------------------2---------------------------|
 |--0---------------------------0------------------------------|

  A
 |-----------0-----------0------------0------------------------|
 |--------3-----------3------------2---------------------------|
 |-----4-----------4------------2------------------------------|
 |-------------------------------------------------------------|
 |--0-----------0------------0---------------------------------|
 |-------------------------------------------------------------|

    C        G               D          A     G/B
 |--0----------------------------------------------------------|
 |--------3--0------------------0------------------------------|
 |-----0--------0-----2-0-2--------0---------------------------|
 |-----------------0---------0--------2-----2----0-------------|
 |--3------------------------------------0-----2---------------|
 |-----------3-------------------------------------------------|

    C        G               D                   
 |--0---------------------------------0------------------------|
 |--------3--0---------------------3-----------3---------------|
 |-----0--------0-----2-0-2-----2-----------2------------------|
 |-----------------0---------0-----------0---------------------|
 |--3----------------------------------------------------------|
 |-----------3-------------------------------------------------|

    C     G6  Dsus2 A7sus G/B  C  G     Dsus2
 |--0--0--0--0--0--0--0--0--0--0--0--0--0-----------------------|
 |--1--1--3--3--3--3--3--3--1--1--3--3--3-----------------------|
 |--0--0--0--0--2--2--0--0--0--0--0--0--2-----------------------|
 |--2--2--0--0--0--0--2--0--2--2--0--0--0-----------------------|
 |--3--3--2--2--------0--2--3--3--2--2--------------------------|
 |--------3--3--------------------3--3--------------------------|


Thanx for taking your time to look over my tab. Be sure to check out some of my other 
tabs including:

â^À^ÜPardon Me (Acoustic Version)â^À^Ý by Incubus
â^À^ÜKnives Outâ^À^Ý by Radiohead
â^À^ÜMinorityâ^À^Ý by Green Day
â^À^ÜIsland in the Sunâ^À^Ý by Weezer(thereâ^À^Ùs two versions: the wrong one and the corrected one 
that still has mistakes)
â^À^ÜBurn to Endâ^À^Ý solo by Living Sacrifice
â^À^ÜYellow Ledbetterâ^À^Ý by Pearl Jam 
â^À^ÜAlways on Timeâ^À^Ý by Ja Rule (maybe I should be embarrassed)

Thanx again and be sure to email me back with your comments and questions. I would 
appreciate it a lot if people email me instead of I/M-ing me. (You people are annoying) 
Thanx. bye

     
Добавлено: 06.11.2013
Другие материалы по этой песне:
  • Аккорды и текст

Страница создана 06.11.2013
http://primanota.ru/nickel-creek/pastures-new-chords.htm
Привет, Гость.
Предлагаем пройти революционный курс по гитаре.
Подарок от PrimaNota.Ru, забирай!