PrimaNota.ru - самый крупный в мире бесплатный архив песенных текстов, аккордов, табулатур и нот


Nickel Creek - Pasters New - таба, видео

Регистрация Запомнить меня
Войти через:  Facebook Google Twitter Vk Yandex Mail.ru

Nickel Creek - Pasters New - таба, видео

Печатать
Просмотров: 116
Уроки эстрадного вокала в Санкт-Петербурге
This is the part i know so far ive been through many sites to find tabs for this song 
of course they screwed them up but i know this is right took me a while to type it all in 
out messing up but this is a great fantastic beautifu song enjoy ^^
Im only 14 years going on to 15 soon so be easy on me if somehtings not right on this 
^^

(((Standered Tuning)))

|---------------------------------------0---|
|---------------0------------------0--3-----|
|----------0--2---0-----------0--2----------|
|------2p4----------4-----2p4---------------|
|----2------------------2-------------------|
|--0------------------0---------------------|


|--------0---0-----0---------------------------|
|------3---3-----2-----------------0-----------|
|----4----4----2-------------0--2----0---------|
|------------------------2p4-----------4-------|
|--0----0----0---------2--------------------2--|
|--------------------0-------------------0-----|

|------------------0-----0----0-----0----------|
|-------------0--3-----3----3-----2-----0------|
|-------0--2---------4----4-----2-----0--------|
|--2p4-----------------------------------------|
|-----------------0-----0-----0-----0----------|
|----------------------------------------------|

|----0----------------------------------0---|
|--------3-0-3-0----------------------------|
|-----------------0-2-2-0-------------------|
|--------------------------2-2-0-----0------|  (x2)
|----3----------------------------0-----3---|
|-------------------------------------------|

Thats mostly what i have now its hard to hear cause theres always a violen in the middle 
it all BUT LISTEN to the song and time yourself so you can get the right cordination of 
fast the beat and yeah u get the point ^^
this is truly a great song these tabs right hear are 100 %
right....iiii just need the ending to it anddd im DONE YAY GO ME HOHO >.<

Yours Truly,
    A Nickel Creek Fan...

     Samantha
Добавлено: 29.07.2013
Другие материалы по этой песне:
  • Аккорды и текст

Страница создана 29.07.2013
http://primanota.ru/nickel-creek/pasters-new-chords.htm
Привет, Гость.
Предлагаем пройти революционный курс по гитаре.
Подарок от PrimaNota.Ru, забирай!