PrimaNota.ru - самый крупный в мире бесплатный архив песенных текстов, аккордов, табулатур и нот


Nickel Creek - House Of Bombadil - таба, видео

Регистрация Запомнить меня
Войти через:  Facebook Google Twitter Vk Yandex Mail.ru

Nickel Creek - House Of Bombadil - таба, видео

Печатать
Просмотров: 93
Уроки эстрадного вокала в Санкт-Петербурге
Main Theme:
Time : 0:00 - 0:12
e-||---------------------------------------------------|
b-||---------------------------------------------------|
G-||-12-12-12-----12-------12-14-16^12----17^12----14--|
D-||-----------16----14-16-------------12-------12-----|
A-||---------------------------------------------------|
E-||---------------------------------------------------|

-----------------------------------------|
----------------15-17-------15-----------|
-12-14----12/14-------14-------14----12--|
-------16----------------16-------16-----|
-----------------------------------------|
-----------------------------------------|

---------------------------------------------------------------------|R|
---------------------------------------------------15-17-------------|E|
----12-------12-14-16^12----17^12----14---12/14----------14-------12-|P|
-16----14-16-------------12-------12------------16----------16-12----|E|
---------------------------------------------------------------------|A|
---------------------------------------------------------------------|T|


Time: 0:13 - 0:19
----------------------------13-12-13----12-------------------------12-14-15-|
-------------------12-13-15----------15----13-15-12-13----12-13-15----------|
-------12----12-14-------------------------------------14-------------------|
-12-14----12----------------------------------------------------------------|
----------------------------------------------------------------------------|
----------------------------------------------------------------------------|

-19-17-19-15-17------------------------16-------------------20-19----18-20-22-|
----------------19-17-15--/17----17-19----19-17-------17-20-------20----------|
------------------------------16----------------16-17-------------------------|
------------------------------------------------------------------------------|
------------------------------------------------------------------------------|
------------------------------------------------------------------------------|

-18----------------17-------------------------------------|
----18----------------17----------------------------------|
-------20-19----18-------18-19----------------------------|
-------------20----------------19-16----17----------------|
-------------------------------------17-------------------|
----------------------------------------------------------|

Time : 0:19 - 0:25
-------------------------------------------------------------10-12-------10----------|
-------------------10-12-------13-------10----------------10-------10-------10-------|
-12--11-12-9-11-12-------12-------12----------12-14-11-12-------------11-------11-12-|
----------------------------12-------12----------------------------------------------|
-------------------------------------------------------------------------------------|
-------------------------------------------------------------------------------------|

---------------------------------------------------10-12-----------------------------|
---------------10-12-------13-------10-------------------10--------------------------|
-11-12-9-11-12-------12-------12----------12-14-11----------11----12-9---------------|
------------------------12-------12----------------------------12------12-10-9-------|
-------------------------------------------------------------------------------12-10-|
-------------------------------------------------------------------------------------|

Time: 0:26-0:39
-||-----------------------------------------------------------|
-||------------------------12-12--12--13-12-------------------|
-||----12---14-14-----14---------------------14\12-11-12------|
-||-12----X--------12----X------------------------------------|
-||-----------------------------------------------------------|
-||-----------------------------------------------------------|

---------------------------------------------------------------------|R|
------------------------------------------------13-12-13-------------|E|
------------9------11-11--11---12-12--12--12/14----------14-12-11-12-|P|
-------9-12---12-9-----------x---------------------------------------|E|
-10-12---------------------------------------------------------------|A|
---------------------------------------------------------------------|T|

Violin
Time: 0:39
---------------------------------------------------------------10-12-------10----------|
----------------------10-12-------13-------10---------------10-------10-------10-------|
-12--11^12^11-9-11-12-------12-------12---------12-14-11-12-------------11-------11-12-|
-------------------------------12-------12---------------------------------------------|
---------------------------------------------------------------------------------------|
---------------------------------------------------------------------------------------|

--------------------------------------------------10-12--------------|
---------------10-12-------13-------10------------------10-----------|
-11-12-9-11-12-------12-------12---------12-14-11----------11----12--|
------------------------12-------12---------------------------12-----|
---------------------------------------------------------------------|
---------------------------------------------------------------------|

------------------------------------------------------------------------15^14------------------------|
----------------------------12-------13-12---------------------------15------15-12-13-15-13-12-------|
------11^12--11-12----11/12----14-12-------14-12-14---12-14----12-14--------------------------14-12--|
-12^14-------------14---------------------------------------16---------------------------------------|
-----------------------------------------------------------------------------------------------------|
-----------------------------------------------------------------------------------------------------|

-------------------------------------------------------10-12-------------|
--------------------12-------13-12---------------------------10----------|
-12--11-12----11-12----14-12-------14-12-14---12-14-11----------11----12-|
-----------14------------------------------------------------------12----|
-------------------------------------------------------------------------|
-------------------------------------------------------------------------|

Mandolin
Time: 0:51 - 0:58
-------------------------------------12----14-12-------------------------------------|
----------------------12----------------16-------15-13-12----------12-13-12----------|
----------12----12-14----14-12----------------------------14-13-14----------14-12----|
-12-14-16----16----------------16-14----------------------------------------------16-|
-------------------------------------------------------------------------------------|
-------------------------------------------------------------------------------------|

-14-12-15-14-12-------12----12-14-15-14-12--------17-15-13------------------------------|
----------------15-16----16----------------15-13------------17-15-13--------13-15-13----|
---------------------------------------------------------------------15--15----------15-|
----------------------------------------------------------------------------------------|
----------------------------------------------------------------------------------------|
----------------------------------------------------------------------------------------|

There's a blur of notes here that I can't figure out...
-------17^12-------------------|
------------14---15^10---------|
-12/14--------14------11---12--|
------------------------12-----|
-------------------------------|
-------------------------------|

--------------------------------------------------------------------------------------|
-------------------------------------------------------------15-17-------15-----------|
-12-----12-------12-14-16^12----17^12----14---12-14----12-14-------14-------14----12--|
-----16----14-16-------------12-------12------------16----------------16-------16-----|
--------------------------------------------------------------------------------------|
--------------------------------------------------------------------------------------|

---------------------------------------------------------------------|
---------------------------------------------------15-17-------------|
----12-------12-14-16^12----17^12----14---12-14----------14-------12-|
-16----14-16-------------12-------12------------16----------16-12----|
---------------------------------------------------------------------|
---------------------------------------------------------------------|

-||-----------------------------------------------------------|
-||------------------------12-12--12--13-12-------------------|
-||----12---14-14-----14---------------------14\12-11-12------|
-||-12----X--------12----X------------------------------------|
-||-----------------------------------------------------------|
-||-----------------------------------------------------------|

---------------------------------------------------------------------|R|
------------------------------------------------13-12-13-------------|E|
------------9------11-11--11---12-12--12--12/14----------14-12-11-12-|P|
-------9-12---12-9-----------x---------------------------------------|E|
-10-12---------------------------------------------------------------|A|
---------------------------------------------------------------------|T|


Guitar

--5/7-----5-3---0----------------------------------------------------------------------|
------5\3-----0---0-3------------------------------------------------------------------|
----------------------4\2^0-2-0---0---2-4---2-0----------------------------------------|
--------------------------------2---------0-----4-0-2---2-0---2--0---0-----------------|
------------------------------------------------------------2------2---2-0---0-2-------|
---------------------------------------------------------------------------3-----3-2-0-|

------------------------------3-5/7-7---7/10-10-|
-----------------------3--3-5--5----------------|
--------------0---2/4---------------------------|
------------0---0-------------------------------|
------0-2---------------------------------------|
--2-3-------------------------------------------|

-10/12-10-----12-12-----10--------------------|
-----------12--------12----12\10-8------------|
-----------------------------------9----------|
----------------------------------------------|
----------------------------------------------|
----------------------------------------------|

----------------------------------------------------------|
----------------------------------------------------------|
-9-11--12-11--11-9---------9------------------------------|
-------------------12-9-12---12-9-12-9--------------------|
---------------------------------------12-10-12-10----10--|
---------------------------------------------------12-----|

--------------------------------------------------------------------------------------|
-------------------------------------------------------------15-17-------15-----------|
-12-----12-------12-14-16^12----17^12----14---12-14----12-14-------14-------14----12--|
-----16----14-16-------------12-------12------------16----------------16-------16-----|
--------------------------------------------------------------------------------------|
--------------------------------------------------------------------------------------|

---------------------------------------------------------------------|
---------------------------------------------------15-17-------------|
----12-------12-14-16^12----17^12----14---12-14----------14-------12-|
-16----14-16-------------12-------12------------16----------16-12----|
---------------------------------------------------------------------|
---------------------------------------------------------------------|
Добавлено: 19.10.2013
Другие материалы по этой песне:
  • Аккорды и текст

Страница создана 19.10.2013
http://primanota.ru/nickel-creek/house-of-bombadil-chords.htm
Привет, Гость.
Предлагаем пройти революционный курс по гитаре.
Подарок от PrimaNota.Ru, забирай!