PrimaNota.ru - самый крупный в мире бесплатный архив песенных текстов, аккордов, табулатур и нот


Nick Yianitsas - Untitled - таба

Регистрация Запомнить меня
Войти через:  Facebook Google Twitter Vk Yandex Mail.ru

Nick Yianitsas - Untitled - таба

Печатать
Просмотров: 86
Untitled - Nick Yianitsas

Chords used:

Fmaj7:xx3210        Dsus4:xx0233
C:x32010            Em7:022030
G:320003            Em6:022020
E:022100            C/G:332010
Cadd9:x32033        Am:x02210
Em:022000           Am6:x02212
Gmodal:320033

A lot of chords.
*no capo used*

INTRO:
Fmaj7                             C
|---------0---------------0---------------0---------------0-------|
|-------1---1-----------1---1-----------1---1-----------1---1-----|
|-----2-------2-------2-------2-------0-------0-------0-------0---|
|---3-----------3---3-----------3---2-----------2---2-----------2-|
|-0---------------0---------------3---------------3---------------|
|-----------------------------------------------------------------|

Fmaj7                             C
|---------0-------------------------------0----------------------|
|-------1---1-----------1p2p1-----------1---1-----------1p2p1----|
|-----2-------2-------2-------2-------0-------0-------0-------0--|
|---3-----------3---3-----------3---2-----------2---2-----------2|
|-0---------------0---------------3---------------3--------------|
|----------------------------------------------------------------|


Verse/Pre-chorus
*Give each chord four counts*

Fmaj7, C - x2      G, E, Cadd9, Em
--------------------------------------------
Chorus:
*Give each chord four counts*

Gmodal, Dsus4, Cadd9, Gmodal - x2
--------------------------------------------
Bridge:
*Give Em two counts, Em7 and Em6 one count each, C/G, Am, Am6,
 give four*

Em, Em7, Em6, C/G - x2       Am, Am6 - x2
--------------------------------------------
SONG PROGRESSION:
VERSE/PRECHORUS
CHORUS
VERSE/PRECHORUS
CHORUS
BRIDGE
VERSE/PRECHORUS
CHORUS x2 and fade
Добавлено: 09.06.2012
Другие материалы по этой песне:
  • Аккорды и текст

Страница создана 09.06.2012
http://primanota.ru/nick-yianitsas/untitled-chords.htm
Привет, Гость.
Предлагаем пройти революционный курс по гитаре.
Подарок от PrimaNota.Ru, забирай!