PrimaNota.ru - самый крупный в мире бесплатный архив песенных текстов, аккордов, табулатур и нот


Nick Jonas - Teacher - аккорды и текст, видео

Регистрация Запомнить меня
Войти через:  Facebook Google Twitter Vk Yandex Mail.ru

Nick Jonas - Teacher - аккорды и текст, видео

Печатать
Просмотров: 371
Teacher
Nick Jonas
Capo: 3
Intro (2X)
e-------------------------------------------|
B-------------------------------------------|
G-------------------------------------------|
D---2p0--0-1-2------2p0-----0-2-------2-----|
A------0----------------0--------1s2--------|
E--0---------3-0----------------------------|

Em                 A               G
Right when I think I finally got you figured out
Em               Em
You turn around, blow my mind
Em              A             G
So frustrated, girl you make me wanna shout
Em                   Em
And it's the only the start of the night
Em                                       A    G
And I'm like, oh my, oh my, oh my, oh my Gooood
Em                        Em
Oh my, oh my, oh my, oh my God

C
What you do me wrong?
Em
What you do me wrong?
B7
When you wear that dress, 
B7
and my heart it just can't take it anymore
C
What you do me wrong?
Em
What you do me wrong?
B7
When you act like this, 
B7
it's like your momma never told you how 
*Palm Mute*
to love So let me teach you

(2X)
e-------------------------------------------|
B-------------------------------------------|
G-------------------------------------------|
D---2p0--0-1-2------2p0-----0-2-------2-----|
A------0----------------0--------1s2--------|
E--0---------3-0----------------------------|

Em                   A              G
Take on step forward Then we take a couple back
Em                      Em
But you know I'm gonna keep up the pace
Em                     A              G
This game we're playing make me wanna break the rules
Em                Em
Can't let you get away from me
Em                         A    G
Oh my, oh my, oh my, oh my Goooood (Oh My God)
Em                  Em
Oh my, oh my, oh my, oh my God (yeah)


C
What you do me wrong?
Em
What you do me wrong?
B7
When you wear that dress, 
B7
and my heart can't take it anymore
C
What you do me wrong?
Em
What you do me wrong?
B7
When you act like this, 
B7
it's like your momma never told you how
*Palm mute*
to love So let me teach you

(2X)
e-------------------------------------------|
B-------------------------------------------|
G-------------------------------------------|
D---2p0--0-1-2------2p0-----0-2-------2-----|
A------0----------------0--------1s2--------|
E--0---------3-0----------------------------|

Em
Dance with that body girl
B7
'Cause everybody here is wanting your body girl
Em
Dance with that body girl
B7
'Cause everybody here is wanting your body girl


C
What you do me wrong?
Em
What you do me wrong?
B7
When you wear that dress, 
B7
and my heart can't take it anymore
C
What you do me wrong?
Em
What you do me wrong?
B7
When you act like this, 
B7
it's like your momma never told you how
B7
to love So let me teach you


C
What you do me wrong?
Em
What you do me wrong?
B7
When you wear that dress, 
B7
and my heart can't take it anymore
C
What you do me wrong?
Em
What you do me wrong?
B7
When you act like this, 
B7
it's like your momma never told you how
*Palm mute*
to love So let me teach you

(2X)
e-------------------------------------------|
B-------------------------------------------|
G-------------------------------------------|
D---2p0--0-1-2------2p0-----0-2-------2-----|
A------0----------------0--------1s2--------|
E--0---------3-0----------------------------|

*Palm mute*
So let me teach you
Добавлено: 13.03.2015
Другие материалы по этой песне:
  • Аккорды и текст

Страница создана 06.11.2014
http://primanota.ru/nick-jonas/teacher-chords.htm
Привет, Гость.
Предлагаем пройти революционный курс по гитаре.
Подарок от PrimaNota.Ru, забирай!