PrimaNota.ru - самый крупный в мире бесплатный архив песенных текстов, аккордов, табулатур и нот


Nick Cave & The Bad Seeds - Lovely Creature - текст песни, бас-таба, видео

Регистрация Запомнить меня
Войти через:  Facebook Google Twitter Vk Yandex Mail.ru

Nick Cave & The Bad Seeds - Lovely Creature - текст песни, бас-таба, видео

Печатать
Просмотров: 142
Авторы музыки: Nick Cave, Thomas Wydler, Martyn P. Casey, Mick Harvey, Blixa Bargeld
Авторы текста: Nick Cave
song: Lovely Creature
artist: Nick Cave and the Bad Seeds
album: Murder Ballads

G|-----------------------------------------------|
D|-----------------------------------------------|
A|---1-2--1h3-3-3-3--1h3-3-3-3--1h3-3-3-3-3------|
E|-3---------------------------------------------|


G|-----------------------------------3---------|
D|-------------------------------3/5---5-3-----|
A|---1-2--1h3-3-3-3--1h3-3-3-3------------3----|
E|-3-------------------------------------------|


Repeat, repeat, repeat, and enjoy.


Tabbed by: Iggy-Moonbeam
Добавлено: 08.01.2014
Другие материалы по этой песне:
  • Аккорды и текст

Страница создана 16.06.2012
http://primanota.ru/nick-cave-and-the-bad-seeds/lovely-creature-chords.htm
Привет, Гость.
Предлагаем пройти революционный курс по гитаре.
Подарок от PrimaNota.Ru, забирай!