PrimaNota.ru - самый крупный в мире бесплатный архив песенных текстов, аккордов, табулатур и нот


Nick Cave & The Bad Seeds - Cannibal'S Hymn - текст песни, бас-таба, видео

Регистрация Запомнить меня
Войти через:  Facebook Google Twitter Vk Yandex Mail.ru

Nick Cave & The Bad Seeds - Cannibal'S Hymn - текст песни, бас-таба, видео

Печатать
Просмотров: 137
Авторы музыки: Nick Cave
Авторы текста: Nick Cave
Cannibal's Hymn
Nick Cave and the Bad Seeds
Bass Tab
Bassist: Martyn P. Casey

160BPM, 3/4

Intro

||---------------|--------------|--------------|---------------||
||o--------------|-12-----------|--------------|-12-----------o||
||o-7--10--12S14-|-----14--12\--|-7--10--12S14-|-----14--12\--o||
||---------------|--------------|--------------|---------------||

Verse
                                                               4x
||---------------|--------------|--------------|---------------||
||o--------------|-12-----------|--------------|-12-----------o||
||o-7--10--12S14-|-----14--12\--|-7--10--12S14-|-----14--12\--o||
||---------------|--------------|--------------|---------------||

||--------------|-------------|-------------|--------------||
||o-------------|-------------|-------------|-------------o||
||o-------------|-10----------|-------------|-10----------o||
||--5--8--10h12-|-----12--10--|-5--8--10h12-|-----12--10---||

||---------------|--------------|--------------|---------------||
||o--------------|-12-----------|--------------|-12-----------o||
||o-7--10--12S14-|-----14--12\--|-7--10--12S14-|-----14--12\--o||
||---------------|--------------|--------------|---------------||

Chorus

|---------|----------------|-------|---------|--------|----------|-5------|-5--5--/7--|
|---------|----------------|-------|---------|--------|-------5--|--------|-----------|
|-14------|-/14--12\--10\--|-------|----5----|-3------|-3--7-----|--------|-----------|
|---------|----------------|-------|-7-------|--------|----------|--------|-----------|

|-4------|-------------|-------|----------|--------|------------|-----------|---------|
|--------|-9\--7\--5\--|-------|----------|--------|------------|-10----10--|---------|
|--------|-------------|-------|-2--5--2--|-3------|-3--7--/10--|-----------|-5----5--|
|--------|-------------|-------|----------|--------|------------|-----------|---------|

|--------|----------|--------|----------|---------|---------|---------|-----------|
|-5------|-5--------|-5------|-5--7--5--|---------|---------|---------|----7------|
|--------|----5--7--|--------|----------|-5-------|-5-------|-5-------|-5-----5h6-|
|--------|----------|--------|----------|------5--|------5--|------5--|-----------|

|---------|---------|---------|---------|---------|---------|---------|---------|
|---------|---------|---------|------5--|---------|---------|-3----3--|---------|
|-7-------|-7-------|-7-------|-7-------|-3-------|-3----3--|---------|-5----5--|
|------7--|------7--|------7--|---------|------3--|---------|---------|---------|

||---------------|--------------|--------------|---------------||
||o--------------|-12-----------|--------------|-12-----------o||
||o-7--10--12S14-|-----14--12\--|-7--10--12S14-|-----14--12\--o||
||---------------|--------------|--------------|---------------||

Verse
                                                               4x
||---------------|--------------|--------------|---------------||
||o--------------|-12-----------|--------------|-12-----------o||
||o-7--10--12S14-|-----14--12\--|-7--10--12S14-|-----14--12\--o||
||---------------|--------------|--------------|---------------||

||--------------|-------------|-------------|--------------||
||o-------------|-------------|-------------|-------------o||
||o-------------|-10----------|-------------|-10----------o||
||--5--8--10h12-|-----12--10--|-5--8--10h12-|-----12--10---||

|--------------|--------------|--------------|--------------|
|--------------|-12-----------|--------------|-12-----------|
|-7--10--12S14-|-----14--12\--|-7--10--12S14-|-----14--12\--|
|--------------|--------------|--------------|--------------|

|--------------|--------------|--------------|---------------|
|--------------|-12-----------|--------------|-12------------|
|-7--10--12S14-|-----14--12\--|-7--10--12S14-|-----14--12-13-|
|--------------|--------------|--------------|---------------|

Chorus

|---------|----------------|-------|---------|--------|----------|-5--5----|-5--5--/7--|
|---------|----------------|-------|---------|--------|-------5--|---------|-----------|
|-14------|-/14--12\--10\--|-------|---5--2--|-3------|-3--7-----|---------|-----------|
|---------|----------------|-------|---------|--------|----------|---------|-----------|

|-4------|-------------|-------|----------|--------|------------|------------|---------|
|--------|-9\--7\--5\--|-------|----------|--------|------------|-10----10\--|---------|
|--------|-------------|-------|-2--5--2--|-3------|-3--7--/10--|------------|-5----5--|
|--------|-------------|-------|----------|--------|------------|------------|---------|

|--------|----------|-------|----------|--------|---------|---------|----------|
|-5------|-5--------|-------|-5--7--5--|--------|---------|---------|----------|
|--------|----5--7--|-------|----------|-5------|-5-------|-5-------|-5--5--6--|
|--------|----------|-------|----------|--------|------5--|------5--|----------|

|----9---7h|=9-------|---------|----------|--------|----------|--------|--------|
|----------|---------|---------|----------|--------|----3-----|-3------|--------|
|-7--------|---------|-7-------|-7-----5--|-3------|-3-----3--|--------|-5------|
|----------|------7--|------7--|----7-----|--------|----------|--------|--------|

                                                               4x
||---------------|--------------|--------------|---------------||
||o--------------|-12-----------|--------------|-12-----------o||
||o-7--10--12S14-|-----14--12\--|-7--10--12S14-|-----14--12\--o||
||---------------|--------------|--------------|---------------||

Verse
                                                               4x
||---------------|--------------|--------------|---------------||
||o--------------|-12-----------|--------------|-12-----------o||
||o-7--10--12S14-|-----14--12\--|-7--10--12S14-|-----14--12\--o||
||---------------|--------------|--------------|---------------||

||--------------|-------------|-------------|--------------||
||o-------------|-------------|-------------|-------------o||
||o-------------|-10----------|-------------|-10----------o||
||--5--8--10h12-|-----12--10--|-5--8--10h12-|-----12--10---||

||---------------|--------------|--------------|---------------||
||o--------------|-12-----------|--------------|-12-----------o||
||o-7--10--12S14-|-----14--12\--|-7--10--12S14-|-----14--12\--o||
||---------------|--------------|--------------|---------------||

Chorus

|--------|-------------|-------|-----------|--------|----------|-5--5-----|-5--5--/7--|
|--------|-------------|-------|-----------|--------|-------5--|--------5-|-----------|
|--------|-------------|-------|-----5-----|-3------|-3--7-----|----------|-----------|
|-7------|-/7--5\--3\--|-------|-/7-----7--|--------|----------|----------|-----------|

|-4------|-------------|-------|----------|--------|-----------|------------|---------|
|--------|-9\--7\--5\--|-------|----------|--------|-----------|-10----10\--|---------|
|--------|-------------|-------|-2--5--2--|-3------|-3--7--10--|------------|-5----5--|
|--------|-------------|-------|----------|--------|-----------|------------|---------|

|--------|----------|--------|--------|---------|---------|---------|--------|
|-5------|-5--------|-5------|---5----|---------|---------|---------|--------|
|--------|----5--7--|--------|--------|-5-------|-5-------|-5-------|-5------|
|--------|----------|--------|--------|------5--|------5--|------5--|--------|

|-----------|---------|-----------|----------|--------|----------|--------|--------|
|-----------|---------|-----------|----------|--------|----------|-3------|--------|
|-7--7-7----|-7-------|-7--7-7----|-7\-------|-3------|-3-----3--|--------|-5------|
|--------7--|------7--|--------7--|-------3--|--------|----3-----|--------|--------|

Ending

||---------------|--------------|--------------|--------------|
||o--------------|-12-----------|--------------|-12-----------|
||o-7--10--12S14-|-----14--12\--|-7--10--12S14-|-----14--12\--|
||---------------|--------------|--------------|--------------|

                                                 3x
|--------------|--------------|--------|---------||
|--------------|-12-----------|--------|--------o||
|-7--10--12S14-|-----14--12\--|-8------|-5------o||
|--------------|--------------|--------|---------||

|--------|-------|-------|-------*|
|--------|-------|-------|-------*|
|--------|-------|-------|-------*|
|-0------|-------|-------|-------*|

Добавлено: 05.08.2013
Другие материалы по этой песне:
  • Аккорды и текст

Страница создана 25.04.2012
http://primanota.ru/nick-cave-and-the-bad-seeds/cannibals-hymn-chords.htm
Привет, Гость.
Предлагаем пройти революционный курс по гитаре.
Подарок от PrimaNota.Ru, забирай!