PrimaNota.ru - самый крупный в мире бесплатный архив песенных текстов, аккордов, табулатур и нот


Nick Camillo - Aeroplane - таба, видео

Регистрация Запомнить меня
Войти через:  Facebook Google Twitter Vk Yandex Mail.ru

Nick Camillo - Aeroplane - таба, видео

Печатать
Просмотров: 96
Aeroplane by Nick Camillo
http://www.nickcamillo.com

ORDER:
intro
verse x2
chorus
intro
verse x3
chorus
bridge
chorus


INTRO

e|----------------------------------------------------|
B|-------0-----------0------------0------------0------|
G|-------11----------11-----------11-----------11-----|
D|---9-------9---9--------9---9--------9---9--------9-|
A|----------------------------------------------------|
E|-0---0---0---0---0----0---11--11---11--11--11---11--|

e|----------------------------------------------------|
B|-------10-----------9-------------0-----------0-----|
G|-------11----------------11-------9-----------9-----|
D|---9--------9---9-------------7-------7---7-------7-|
A|----------------------------------------------------|
E|-10--10---10--10--10---10---9---9---9---9---9---9---|

e|----------------------------------------------------|
B|-------8-----------7-----------7-----------7--------|
G|-------9---------------9-------8-----------8--------|
D|---7-------7---7-----------9-------9---9-------9----|
A|----------------------------------------------------|
E|-8---8---8---8---8---8---7---7---7---7---7---7------|

e|----------------------------------------------------|
B|-------9-----------9-----------9-----------9--------|
G|-------9-----------9-----------9-----------9--------|
D|---9-------9---9-------9---9-------9---9-------9----|
A|----------------------------------------------------|
E|-0---0---0---0---0---0---0---0---0---0---0---0------|

VERSE

e|----------------------------------------------------|
B|-------0-----------0------------0------------0------|
G|-------11----------11-----------11-----------11-----|
D|---9-------9---9--------9---9--------9---9--------9-|
A|----------------------------------------------------|
E|-0---0---0---0---0----0---11--11---11--11--11---11--|

e|----------------------------------------------------|
B|-------10-----------9-------------0-----------0-----|
G|-------11----------------11-------9-----------9-----|
D|---9--------9---9-------------7-------7---7-------7-|
A|----------------------------------------------------|
E|-10--10---10--10--10---10---9---9---9---9---9---9---|

CHORUS

e|----------------------------------------------------|
B|-------0-----------0------------0------------0------|
G|-------11----------11-----------9------------9------|
D|---9-------9---9--------9---7--------7---7--------7-|
A|----------------------------------------------------|
E|-0---0---0---10--10--10---9---9---9---9---9----9----|

e|----------------------------------------------------||
B|-------0-----------0------------0------------8------||
G|-------11----------11-----------9------------9------||
D|---9-------9---9--------9---7--------7---7--------7-||
A|----------------------------------------------------||
E|-0---0---0---10--10--10---9---9---9---8---8----8----||x2

e|----------------------------------------------------|
B|-------7-----------7-----------7-----------7--------|
G|-------8-----------8-----------8-----------8--------|
D|---9-------9---9-------9---9-------9---9-------9----|
A|----------------------------------------------------|
E|-7---7---7---7---7---7---7---7---7---7---7---7------|

BRIDGE

e|--------------------------------------|
B|-------9-----------8-----------0------|
G|-------9-----------9-----------1------|
D|---11------11--10------10--2-------2--|
A|--------------------------------------|
E|-9---9---9---8---8---8---0---0---0----|

e|----------------------------------------------------|
B|-------7-----------7-----------7-----------7--------|
G|-------8-----------8-----------8-----------8--------|
D|---9-------9---9-------9---9-------9---9-------9----|
A|----------------------------------------------------|
E|-7---7---7---7---7---7---7---7---7---7---7---7------|

e|----------------------------------------------------|
B|-------5-----------5-----------5-----------5--------|
G|-------6-----------6-----------6-----------6--------|
D|---7-------7---7-------7---7-------7---7-------7----|
A|----------------------------------------------------|
E|-5---5---5---5---5---5---5---5---5---5---5---5------|

e|-------------------------|
B|-------9-----------8-----|
G|-------9-----------9-----|
D|---11------11--9-------9-|
A|-------------------------|
E|-9---9---9---7---7---7---|

e|----------------------------------------------------|
B|-------0-----------0-----------0-----------0--------|
G|-------1-----------1-----------1-----------1--------|
D|---2-------2---2-------2---2-------2---2-------2----|
A|----------------------------------------------------|
E|-0---0---0---0---0---0---0---0---0---0---0---0------| x2
Добавлено: 08.10.2013
Другие материалы по этой песне:
  • Аккорды и текст

Страница создана 08.10.2013
http://primanota.ru/nick-camillo/aeroplane-chords.htm
Привет, Гость.
Предлагаем пройти революционный курс по гитаре.
Подарок от PrimaNota.Ru, забирай!