PrimaNota.ru - самый крупный в мире бесплатный архив песенных текстов, аккордов, табулатур и нот


Nicho Hinojosa - Y Como Es El - таба, видео

Регистрация Запомнить меня
Войти через:  Facebook Google Twitter Vk Yandex Mail.ru

Nicho Hinojosa - Y Como Es El - таба, видео

Печатать
Просмотров: 123
A
e-----------------0---------------------|
B-----2-0-----0h2-------0-2-----0h2p0---|
G-----2-2-2---2---------2-2-2---------2-|
D---2-------2---------2-------2---------|
A-0-----------------0-------------------|
E---------------------------------------|

  A       A#m+5    Bm7
e--------------------------2----5--------|
B-----2-------2--------2h3---3-3--3----3-|
G-----2-------3-3---------------------2--|
D---2---2---2--------4---------------4---|
A-0-------1--------2----------------2----|
E----------------------------------------|
     Mirándote a los ojos juraría

  E      F#m G#m A     Bm7 B7sus2
e---------------------------------|
B-----0---------------2---3---5---|
G---1---1---2---4---2---2---2---2-|
D-----------4---6-----------------|
A-----------------0---0---1---1---|
E-0-------2---4-------------------|
Que tienes algo nuevo que contarme

D         D9        A
e-----2---0---0--------------------------------|
B-----3---3------------------------2---0h2-2---|
G---2---2---2---2----------------2-2-2-2---2---|
D-0--------------------------------------------|
A-------------------0--------------------------|
E----------------------------------------------|
Empieza ya mujer no tengas miedo

D                   A      Bm7 B7sus2
e-----2---0---0--------------------|
B-----3---3------------2---3---5---|
G---2---2---2---2----2-2-2-2-2-2-2-|
D-0--------------------------------|
A------------------0---0---1---1---|
E----------------------------------|
quizás para mañana sea tarde

D	 E        A      Bm7 B7sus2
e-----2--------0-------------------|
B-----3--------0-------2---3---5---|
G---2---2----1---1---2-2-2-2-2-2-2-|
D-0--------------------------------|
A------------------0---0---1---1---|
E----------0-----------------------|
quizás para mañana sea tarde

D          D9         E     F#  G#m    A    A7sus2     Asus2*
e--------2-0--0-0-0-----------------------------0-(0)----0-(0)-|
B-------3--3--3-3-3-----0---------------2------3--(3)---5--(5)-|
G---2--2---2--2-2-2---1---1---2---4-----2-----0--------7-------|
D-0---0----0--0-0-0-----------4---6---2---2--2--------7--------|
A-----------------------------------0-------0------------------|
E-------------------0-------2---4------------------------------|
y como es el? en que lugar se enamoro de ti
          D D9 D D9    E	   E7sus2              A      A7sus2
De donde es?              A que dedica el tiempo libre?
    D	  D9 D D9   Bm7           E                  A   A7sus2
Pregúntale            porque ha robado un trozo de mi vida
      D	   D9 D D9
Es un ladrón...
   E	 F#  G#  A                 D     D9    A     A9  D      D9
e---------------------------------0-----2-0-0-0-----0-0-0-0-0-----2-0-0-0-|
B-----0---------------2-0-----0h2-------3-3-3-3-----2-0-0h2-2-----3-3-3-3-|
G---1---1---2---4-----2-2-2---2-------2-2-2-2-2-----2-2-2-2-2---2-2-2-2-2-|
D-----------4---6---2-------2-------0---0-0-0-0---2-2-2-2-2-2-0---0-0-0-0-|
A-----------------0-----------------------------0-------------------------|
E-0-------2---4-----------------------------------------------------------|
que me ha robado todo

  A       A#m+5    Bm7
e------------------------------2--|
B-----2-------2--------3---2h3-3--|
G-----2-------3-3------2---2------|
D---2---2---2--------4---4--------|
A-0-------1--------2------------2-|
E---------------------------------|
Y arréglate mujer se te hace tarde

  E     F#m G#m A       Bm7 B7sus2
e-0-------------------------------|
B-0---0---------------2---3---5---|
G-1-1---1---2---4---2---2---2---2-|
D-2---------4---6-----------------|
A-2---------------0---0---1---1---|
E-0-------2---4-------------------|
y llévate el paraguas por si llueve

D         D9        A
e-----2---0---0---------------------0-|
B-----3---3-------------2---0---0h2---|
G---2---2---2---2-------2---2---2-----|
D-0-------------------2---2---2-------|
A-------------------0-----------------|
E-------------------------------------|
el te estará esperando para amarte
D          D9         A    A7sus2     Asus2*
y yo estaré celoso de perderté
    D	  D9 D D9   Bm7           E             A   A7sus2    Asus2*
y abrígate,         te sienta bien ese vestido gris
    D	  D9 D D9   Bm7           E             A   A7sus2
sonrríele,            que no sospeche que has llorado
    D	  D9 D D9   Bm7           E             A   A7sus2    Asus2*
y déjame...           que vaya preparando mi equipaje
    D	  D9 D D9   Bm7           E        A   A7sus2
perdóname             si te hago otra pregunta
    D	  D9 D D9   Bm7           E             A   A7sus2    Asus2*
y como es el?         en que lugar se enamoro de ti
    D	  D9 D D9   Bm7           E             A   A7sus2
De donde es?          A que dedica el tiempo libre?
    D	  D9 D D9   Bm7           E             A   A7sus2    Asus2*
Pregúntale            porque ha robado un trozo de mi vida
    D	  D9 D Db   Bm7  E       F#m   G#m     A
Es un ladrón...           que me ha robado todo

  D   D/C# Bm7 E  A Asus2 A9
e----2---2---2---0---------------0---|
B---3---3---3---0-----3-2-0-----0—h2-|
G--2---2---2---1----2-2-2-2----2-----|
D-0----------------2----------2------|
A-----4---2-------0----------0-------|
E-------------0-------------0--------|


A#m+5     012320
B7sus2    024252
D9        000230
A7sus2    002030
Asus2*    xx7750
E7sus2    020230
Asus2     002230
A9        002200
D/C#      040232
Db        xxx121
Добавлено: 17.05.2012
Другие материалы по этой песне:
  • Аккорды и текст

Страница создана 17.05.2012
http://primanota.ru/nicho-hinojosa/y-como-es-el-chords.htm
Привет, Гость.
Предлагаем пройти революционный курс по гитаре.
Подарок от PrimaNota.Ru, забирай!