PrimaNota.ru - самый крупный в мире бесплатный архив песенных текстов, аккордов, табулатур и нот


Nicho Hinojosa - Lo Que No Fue No Ser - таба, видео

Регистрация Запомнить меня
Войти через:  Facebook Google Twitter Vk Yandex Mail.ru

Nicho Hinojosa - Lo Que No Fue No Ser - таба, видео

Печатать
Просмотров: 82
tQmMm 

INTRO:

Nota: las pisadas encerradas en [ ] casi no se escuchan

        A                   D                    A                      A
e.|------------0--|----2------0--[0-0-0]--|-----------------|-----------------------|e
b.|--2-2-0-0h2----|----3-----3---[3-3-3]--|----2-0--[0-0-0]-|--------2------[2-2-2]-|b
g.|--2-2-2--------|---------2-------------|----2-2--[2-2-2]-|--------2------[2-2-2]-|g
D.|---------------|--0-----0--------------|-----------------|--------2------[2-2-2]-|D
A.|---------------|-----------------------|--0--------------|--------0------[0-0-0]-|A
E.|---------------|-----------------------|-----------------|-0-4-------------------|E

           A                    D            Bm                   E
e.|------------------------------2--0------------------------------------------------|e
b.|-----2---0---0----------------3--3-----------------3---3-----------0------------2-|b
g.|----2--2---2---2---------------------------------4---4-----------1------------2---|g
D.|---2------------------------0---0------0--------4------------2--------------2-----|D
A.|-0---------------------------------------4---2---------------------------0--------|A
E.|----------------------------------------------------------0-----------------------|E

En tus manos aprendi a beber agua,     Fui un gorrión que se quedó preso en su jaula


      A2     A/G#        F#m                E           D               D9      
e.|-------------------------------------------------------2--------------0---------------|e
b.|---[2]---[2]-----------2-------------------------------3--------------3---------------|b
g.|---[2]---[2]---------2--------------------1------------2--------------2---------------|g
D.|-------------------4----------------------2-------0----0--------------0---------------|D
A.|-0----------------------------------------2-------------------------------------------|A
E.|-------4---------2-------------------0----0-------------------------------------------|E

                   Por que yo corté mis alas,        y el alpiste que me dabas

B7				   E
Fue tan poco y sin embargo yo te amaba...

          A                   D            D9         Bm            E             A
e.|----------------------------3--------0------------------------------------------------|e
b.|-----2---0---0------------2----------2----------------3--3------------------------2---|b
g.|----2--2---2---2--------3------------3--------------4--4-------------0----------2-----|g
D.|---2------------------0--------------0----------- 4----------------1----------2-------|D
A.|-0----------------------------------------------2----------------2----------0---------|A
E.|--------------------------------------------------------------0-----------------------|E

Fue mi canto para ti,    siempre completo,        sin ti no pude volar en otro cielo

      A     A/G#
e.|----------------|e
b.|---[2]---[2]----|b
g.|---[2]---[2]----|g
D.|----------------|D
A.|-0--------------|A
E.|-------4--------|E

F#m                E     D               D9
porque me dejaste solo, confundido y olvidado


 B7                        E
y otra mano me ofreció el fruto anhelado


*Coro: 

A              C#m     F#m D		       E        C#m
lo que un día fue no sera, ya no vuelvas a buscarme

		   F#	          D		E        A
no tengo nada que darte... de tu alpiste me canse
  
        C#m	    F#m   D		      E         C#m
vete a volar a otro cielo, y deja abierta tu jaula

		     F#     
tal vez otro gorrión caiga...

           D                       E            A               A2              D    D9    
e.|--------2---0------[0---0]----------------------------------------------0------2---0--|e
b.|------3---3-----[3----3]------------0---------2-----------2---0----0h2---------3---3--|b
g.|----2-----------------------------1-----------2-----------2---2-----------------------|g
D.|--0-----------------------------2-------------2-----------------------------0---------|D
A.|----------------------------------------------0---------------------------------------|A
E.|-----------------------------0--------------------------------------------------------|E

Pero dale.....                                           De beber 

     D9        A2           A
e.|---0-----------------------------------|e
b.|---3-------2--0-----------2------------|b
g.|---2-------2--2-----------2------------|g
D.|---0----------------------2------------|D
A.|---------0----------------0------------|A
E.|------------------0---4----------------|E

       A                           D                Bm            E          A
e.|------------------------------2--0----------------------------------------------|e
b.|-----2---0---0----------------3--3------------------3---3----------0----------2-|b
g.|----2--2---2---2----------------------------------4---4---------1-----------2---|g
D.|---2------------------------0---0---------------4------------2------------2-----|D
A.|-0------------------------------------------2---------------------------0-------|A
E.|----------------------------------------------------------0---------------------|E

Déjame encender la luz,    No quiero nada,  si esto hubiera sido ayer lo tomaría

     A     A/G#
e.|----------------|e
b.|---[2]---[2]----|b
g.|---[2]---[2]----|g
D.|----------------|D
A.|-0--------------|A
E.|-------4--------|E


F#m		     E	     D                   D9
la primera vez que ofreces, para que yo aquí me quede
B7	                   E
pero sin amarte ya me ganarias...



*Coro: 

A              C#m     F#m D		       E        C#m
lo que un día fue no sera, ya no vuelvas a buscarme

		   F#	          D		E        A
no tengo nada que darte... de tu alpiste me canse
  
        C#m	    F#m   D		      E         C#m
vete a volar a otro cielo, y deja abierta tu jaula

		     F#     
tal vez otro gorrión caiga...

          D                        E             A           A2
e.|--------2---0------[0---0]-----------------------------------------------|e
b.|------3---3-----[3----3]------------0---------2-------------2------------|b
g.|----2-----------------------------1-----------2------------2-------------|g
D.|--0-----------------------------2-------------2-----------2--------------|D
A.|----------------------------------------------0----------0---------------|A
E.|-----------------------------0-------------------------------------------|E

Pero dale.....                                           De beber 


          D                        E              A          A
e.|--------2---0------[0---0]-----------------------0------------|e
b.|------3---3-----[3----3]------------0-----------2---------2---|b
g.|----2-----------------------------1------------2----------2---|g
D.|--0-----------------------------2-------------2-----------2---|D
A.|---------------------------------------------0------------0---|A
E.|-----------------------------0--------------------------------|E

Pero dale.....                               De beber 
Добавлено: 03.05.2012
Другие материалы по этой песне:
  • Аккорды и текст

Страница создана 03.05.2012
http://primanota.ru/nicho-hinojosa/lo-que-no-fue-no-ser-chords.htm
Привет, Гость.
Предлагаем пройти революционный курс по гитаре.
Подарок от PrimaNota.Ru, забирай!