PrimaNota.ru - самый крупный в мире бесплатный архив песенных текстов, аккордов, табулатур и нот


Nicho Hinojosa - Como Te Va Mi Amor - таба, видео

Регистрация Запомнить меня
Войти через:  Facebook Google Twitter Vk Yandex Mail.ru

Nicho Hinojosa - Como Te Va Mi Amor - таба, видео

Печатать
Просмотров: 91
Rubi tQmMm 


TONOS      EADGBe

Am         002210
Bm         224432
C          032010
Cdim       001212
Cadd9      X3203X
Csus2/E    X32033
C'         X32013
Csus2      X3X033
C'7        03201X
D          X00232
Em         022000
Em/D--Em7  020000  NOTA: DESPUES DE LA DIAGONAL / INDICA EL BAJO EL ACORDE
G          320033  ES EL MISMO SOLO CAMBIA EL BAJO
G6         32003X





     G              D        Cdim    Cdim  Em               Em/D
E|---3----3----3-----------------------0---0--0--0--0-------0--0--0--0--|
A|------------------0------------------0---2--2--2--2-------2--2--2--2--|
D|--------0----0----0---------1--------1---2--2--2--2---0---0--0--0--0--|
G|---0----2----0----2----2-----2---2---2---0--0--0--0-------0--0--0--0--|
B|---0--------------3----3------1-1----1---0--0--0--0-------0--0--0--0--|
e|------------------2----2-------2-----2---0--0--0--0-------0--0--0--0--|


     C              D               G           Csus2/E
E|------------------0--0--0--0---3--3--3--3------------------3---3---3|
A|---3---3----------0--0--0--0---2--2--2--2-----3--3--3--3-------2----|
D|------------------0--0--0--0---0--0--0--0-----2--2--2--2-------0----|
G|-----0---0-0------2--2--2--2---0--0--0--0-----0--0--0--0-------0----|
B|------1--3-3------3--3--3--3---3--3--3--3-----3--3--3--3-------3----|
e|-------------------------------3--3--3--3-----3--3--3--3-------3----|

G                   D
Que sorpresas da la vida
Cdim                  Em   Em/D
encontrarte en plena calle,
                          C
fue una chispa en mi equilibrio,
    D              G
dinamita que estalló.

                          D
Te encontré un poca más flaca,
Cdim                 Em    Em/D
fue mirarme y derrumbarme,
                    C
te creí asunto olvidado
        D             G
y otra ves me equivoqué.

        Cadd9      Cdim
Como te va mi amor,
        Em Em7
como te va,
          C
era el silencio
        D               G
la pregunta entre tú y yo.

        Caad9     Cdim
Eres feliz mi bien
         Em Em7
sin engañar,
               C
por que a mi puerta
     D           G
el amor nunca volvió.


    G                 D     Cdim     Cdim  Em          Em7
E|--3----------------------------------0---0--0--0--0--0--0--0--0--0--0--|
A|--------------------0----------------0---2--2--2--2--2--2--2--2--2--2--|
D|-------------0--0---0------1---------1---2--2--2--2--0--0--0--0--0--0--|
G|-----0-0-0---2--0---2--2----2--------2---0--0--0--0--0--0--0--0--0--0--|
B|-------0-0----------3--3-----1---1---1---0--0--0--0--0--0--0--0--0--0--|
e|--------------------2--2------2-2----2---0--0--0--0--0--0--0--0--0--0--|



      C            D                G             Csus2           G
E|----0--0--0--0---0--0--0--0---3---3--3--3--3-------------—--3---3---3---|
A|----3--3--3--3---0--0--0--0-------2--2--2--2----3---------------3-------|
D|----2--2--2--2---0--0--0--0-------0--0--0--0--------------------0-------|
G|----0--0--0--0---2--2--2--2-------0--0--0--0-------0------------0-------|
B|----1--1--1--1---3--3--3--3-------3--3--3--3--------3-----------3-------|
e|----0--0--0--0--------------------3--3--3--3---------3-3--------3-------|



G                        D
Fue un encuentro tan pequeño,
Cdim               Em Em/D
que no pude sincerarme y decirte
         C
te extrañado
     D           G
como nunca imagine.

                         D
Desde entonces como espuma,
Cdim                      Em Em/D
creció un miedo a quedar solo,
                           C
por que no he encontrado a alguien
         D              G
que me llene igual que tu,

              Cadd9 Cdim
Como te va mi amor,
        Em Em7
como te va,
          C
era el silencio
        D               G  C'
la pregunta entre tú y yo.

      Cadd9        Cdim
Eres feliz mi bien
         Em Em7
sin engañar,
              C
por que a mi puerta
     D          G    C'7 G6 (EN CAMBIO A C'7 ES RAPIDO)
el amor nunca volvió.

        Cadd9       Cdim
Como te va mi amor,
        Em Em7
como te va,
          C
era el silencio
        D               G  C'7 G
la pregunta entre tú y yo.

        Cadd9     Cdim
Eres feliz mi bien
         Em Em7
sin engañar,
               C
por que a mi puerta
     D           G
el amor nunca volvió.

                           C
Por que el tiempo ha sido aliado,
     Cdim        Em7
madurando este querer,
      G         C
no debimos separarnos
          D             Em   D <---aqui el D es tapado y sin
fue un error, ahora lo sé.         pisar la primera cuerda

         C        D
Como te va mi amor,

como te va...

    C       Bm        Am       D         G
E|---------------------------------------3--------|
A|--3--------2---------0------------------2-------|
D|---2--------4---------2--------0---------0------|
G|-----0-0------4-4-------2-2------2--------0-----|
B|-----1-1------3-3-------1-1----------------3----|
e|----------------------------------3-2-------3---|
Добавлено: 14.06.2012
Другие материалы по этой песне:
  • Аккорды и текст

Страница создана 14.06.2012
http://primanota.ru/nicho-hinojosa/como-te-va-mi-amor-chords.htm
Привет, Гость.
Предлагаем пройти революционный курс по гитаре.
Подарок от PrimaNota.Ru, забирай!