PrimaNota.ru - самый крупный в мире бесплатный архив песенных текстов, аккордов, табулатур и нот


Nicho Hinojosa - Coincidir - таба, видео

Регистрация Запомнить меня
Войти через:  Facebook Google Twitter Vk Yandex Mail.ru

Nicho Hinojosa - Coincidir - таба, видео

Печатать
Просмотров: 108
Intro     Riff 1   Riff 2       Riff 1  Riff 3


Riff 1
   G                 D                   C                         G
e--------------0-2-3-3-2-2----2-2h3p2----0-0------------------0h2--3--|
B--0-1-1p0-1-3-3-3-3-3-------3-------3-------0-1---1---1-0-1-3-----3--|
G--0-0-0---0-0-------2------2---------2--------0--0----0-0-0----------|
D--------------------0-----0------------------------------------------|
A----------------------------------------3-----3-----3----------------|
E--3---3-----3---3-------------------------------------------------3--|

Riff 2
                   D           C9
e--------3-------------2h3p2---0----|
B---3-----------------3-----3--3----|
G--------------------2-------2-0----|
D--0---------------0-----------2----|
A--------2---0-2-3-------------3----|
E-----3-----------------------------|

Riff 3
                   D           C9
e--3/5—5/3-3-----------2h3p2---0----|
B--3/5—5/3-3----------3-----3--3----|
G--------------------2-------2-0----|
D------------------0-----------2----|
A------------0-2-3-------------3----|
E-----------------------------------|

      G                 C9         D
Soy vecino de este mundo, por un rato,
            C  G/B     Am       D      G    D
y hoy coincide que también tú estás aquí,
       G                  C9       D
Coincidencias tan extrañas, de la vida,
        C              G/B             Am  D         Riff 4
tantos siglos, tantos mundos, tanto espacio, y coincidir.

Si navego con la mente, en los espacios,
o si quiero a mis ancestros, recordar,
agobiado me detengo y no imagino,
                                                     Riff 1  Riff 2
tantos siglos, tantos mundos, tanto espacio y coincidir.

Si en la noche me entretengo, con las estrellas,
y capturo la que empieza, a florecer,
la sostengo entre mis manos, mas me alarmo,           Riff 5
tantos siglos, tantos mundos, tanto espacio, y coincidir.

       A                           E
Si la vida, se sostiene por instantes,
         D       D/C#  Bm   E       A   E
y un instante es el momento de existir,
       A                    (silencio)         E    Esus  E
Si tu vida es otro instante,          no comprendo,
         D             D/C#            Bm  E         F   Riff 6
tantos siglos, tantos mundos, tanto espacio, y coincidir.



Riff 4
   G                 D
e--------------0-2-3-3-2-2--0---|
B--0-1-1p0-1-3-3-3-3-3------3---|
G--0-0-0---0-0-------2------0---|
D--------------------0------2---|
A---------------------------3---|
E--3---3-----3---3--------------|

Riff 5
   G                 E       Esus
e--------------0-2-3-0--------0------------|
B--0-1-1p0-1-3-3-3-3-0--------0------------|
G--0-0-0---0-0-------1--------2------------|
D--------------------2--------2------------|
A--------------------2--------2------------|
E--3---3-----3---3---0--------0------------|

Riff 6
   A
e------------------0---2---4---5----5---|
B--2---3---2---3--------------------5---|
G----2---2---2---2---2---2---2---2--6---|
D-----------------------------------7---|
A--0-------0-------0-------0--------7---|
E-----------------------------------5---|
Добавлено: 12.03.2012
Другие материалы по этой песне:
  • Аккорды и текст

Страница создана 12.03.2012
http://primanota.ru/nicho-hinojosa/coincidir-chords.htm
Привет, Гость.
Предлагаем пройти революционный курс по гитаре.
Подарок от PrimaNota.Ru, забирай!