PrimaNota.ru - самый крупный в мире бесплатный архив песенных текстов, аккордов, табулатур и нот


Nicho Hinojosa - Aveces - аккорды и текст, видео

Регистрация Запомнить меня
Войти через:  Facebook Google Twitter Vk Yandex Mail.ru

Nicho Hinojosa - Aveces - аккорды и текст, видео

Печатать
Просмотров: 92
Aveces
Nicho Hinojosa
esta cancion esta facilisima y es buenisima:D va dedicada tambien a mi beba hermosa
gracias por estar siempre conmigo y a mi lado TE Amo BEBA! es nuestra
cancion bb:D=) espero q te guste mi amor!
ACORDES
 G5    Bm7/F#  C9     Am7    D/F#  C9/B   D7/F#  
e - 3  e - X  e - 3  e - 0  e - X  e - 0  e - 2 
B - 3  B - 3  B - 3  B - 1  B - 3  B - 3  B - 1
G - 0  G - 2  G - 0  G - 0  G - 2  G - 0  G - 2
D - 0  D - 0  D - 2  D - 2  D - 0  D - X  D - 0
A - 2  A - X  A - 3  A - 0  A - X  A - 2  A - X
E - 3  E - 2  E - X  E - 0  E - 2  E - X  E - '


INTRO
           G5       Bm7/F#       C              D7/F#
e ------------3--------5--3-p-2--3----------------- 
B --0-h-1--3-----3--3--3------------1--0-----0-----
G ------------------2---------------------2-----2-- 
D ---------------------4--------------------------- 
A ------------------2------------3----------------- 
E ---------3------------------------------------2-- 

           G5       Bm7/F#       C              D7/F#
e ------------3--------5--3-p-2--3-----------------------| 
B --0-h-1--3-----3--3--3------------1--0-----0-----------|
G ------------------2---------------------2-----2--0-----|
D ---------------------4------------------------------4--|
A ------------------2------------3-----------------------| 
E ---------3------------------------------------2--------|


               G5 
Que a veces te pienso
	       Bm7/F#          
que a veces te lloro
		 C9
que a veces no encuentro las palabras
       Am7            D/F#
para decirte que eres todo.


                   G5
Es que estás en mi mente
		Bm7/F#
cada vez que respiro
	    C9
porque vida no me importa nada
       Am7         D7F#
cuando no estás conmigo,
          Bm7/F#          G	     C
quiero sentirte entre mis brazos todavía
     Bm7/F#       G	      C
enamorarme más de ti, hacerte mía,
     Am7        D7/F#
como la primera vez.


		  G5 
Porque a veces te pierdo
		  Bm7/F#
porque a veces te encuentro
		C9
escondida en la jungla de mis sueños
       Am7          D/F#
en mis noches de desvelo
       C         C9/B		Am7       D7/F#
porque eres mi locura, mi ansiedad y mi pasión.


       Bm7/F#     G5
Porque no yo no entiendo
		  Bm7/F#          
cuando grita el silencio
		 C9
y el orgullo que frena nuestras manos
       Am7          D/F#
a la caricia del perdón,
       Bm7/F#     G5
porque no existen reglas
		 Bm7/F#
ni el romance perfecto
	     C9
porque la historia que vivimos
      Am7           D7/F# 
fue escrita por los dos,
          Bm7/F#            G	     C
quiero sentirte aquí en mis brazos todavía
     Bm7/F#       G	      C
enamorarme más de ti, hacerte mía,
     Am7        D7/F#
como la primera ve-E-E-ez.


PUENTE G5  Bm7/F#  C9  Am7  D/F#  G5  Bm7/F#  C9  Am7  D7/F#  


          Bm7/F#          G	     C
Quiero sentirte entre mis brazos todavía
     Bm7/F#       G	      C
enamorarme más de ti, hacerte mía,
     Am7        D7/F#
como la primera vez.


                 G5
Que a veces me ignoras
	       Bm7/F#
que a veces me amas
		     C9
porque el tiempo nos une cada día
    Am7          D/F#
a pesar de la distancia.


		    G5
Porque a veces me enfrentas
		    Bm7/F#
porque a  veces me abrazas
		 C9
porque llenas mi vida con tu risa,
       Am7        D7/F# 
con tu voz y tu mirada,
       C              C9/B         Am7           D/F#		G5  
porque crees en mis locuras y me entiendes sin hablar . . . te quiero.

FINAL

e -----------------3--7--10--15--|
B --------------3------------12--|
G -----------4---------------12--|
D --------5------------------12--|
A -----5-------------------------|
E --3----------------------------|

                                                              TE amo BEBA!..
Добавлено: 27.06.2012
Другие материалы по этой песне:
  • Аккорды и текст

Страница создана 27.06.2012
http://primanota.ru/nicho-hinojosa/aveces-chords.htm
Привет, Гость.
Предлагаем пройти революционный курс по гитаре.
Подарок от PrimaNota.Ru, забирай!