PrimaNota.ru - самый крупный в мире бесплатный архив песенных текстов, аккордов, табулатур и нот


Паганини Никколо - №1 Андантино в С - аккорды и текст

Регистрация Запомнить меня
Войти через:  Facebook Google Twitter Vk Yandex Mail.ru

Паганини Никколо - №1 Андантино в С - аккорды и текст

Печатать
Просмотров: 135
№1 Андантино в С
Паганини Никколо
Размер: 2/4
Ритм: Andantino

0  .     |   .   |   .     |   .   |   .
E|--3-----|--5-----3--------/3-----|--5-----3-----2-----3----|
B|--5-----|--6-----5--------/5-----|--6-----5-----4-----5----|
G|--------|--------------------------|-------------------------|
D|--------|--------------------------|-------------------------|
A|--------|--------------------------|-------------------------|
E|--------|--------------------------|-------------------------|
   1     2   1
   3     3   3

   -----6----- ----6------           C(III) ........
3  |   .   |   .     |   .   |   .
E|--------0-----------1-----|--------0-----------3-----|
B|------1---1-------3---3---|--------1-----3-----5-----|
G|----0-------0---0-------0-|--------0-----------------|
D|--------------------------|--------------------------|
A|--3-----------2-----------|--3-----------------------|
E|--------------------------|--------------3-----------|
           2  4                   1
                                 3

5  |   .   |   .     |   .   |   .
E|--5-----3--------/3-----|-/5-----3-----2-----3-----|
B|--6-----5--------/5-----|--6-----5-----4-----5-----|
G|--------------------------|--------------------------|
D|--------------------------|--------------------------|
A|--------------------------|--------------------------|
E|--------------------------|--------------------------|
   2   1
   3   3

   -----6----- ----6------
7  |   .   |   .     |   .   |    .
E|--------0-----------1-----|--------0-----0--||--0-----|
B|------1---1-------3---3---|--------1-----1--||--------|
G|----0-------0---0-------0-|--------0-----0--||--------|
D|--------------------------|-----------------||--------|
A|--3-----------2-----------|--3--------------||--------|
E|--------------------------|-----------------||--------|

          C(V) ...........
9  |   .   |   .     |   .   |   .
E|--8-----7-----5-----------|--1-----------0-----------|
B|--------------------5-----|--------------------3-----|
G|--------------------------|--------------------------|
D|--------------------------|--------------------------|
A|--0-----------0-----------|--------------------------|
E|--------------------------|--0-----------------------|
   4   3   1

11 |   .   |   .     |   .   |   .
E|--------------------------|--------------------0-----|
B|--3p1---0-----1-----------|--------0-----------------|
G|--------------------2-----|--1-----------------------|
D|--------------------------|--------------2-----------|
A|--0-----------------------|--------------------------|
E|--------------------------|--0-----------0-----------|

          C(V)...........
13 |   .   |   .     |   .   |   .
E|--8-----7-----5-----------|--1-----------0-----------|
B|--------------------5-----|--------------------3-----|
G|--------------------------|--------------------------|
D|--------------------------|--------------------------|
A|--0-----------0-----------|--------------------------|
E|--------------------------|--0-----------------------|

15 |   .   |   .     |   .   |   .
E|--------------------------|--------------------------||
B|--1-----------0-----------|--------------------------||
G|--------2-----------1-----|--2-----2-----2-----------||
D|--------------------------|--------------------------||
A|--0-----------------------|--0-----0-----0-----------||
E|--------------0-----------|--------------------------||
Добавлено: 24.07.2015
Вам также может быть интересно:
Другие материалы по этой песне:
  • Аккорды и текст

Страница создана 24.07.2015
http://primanota.ru/niccolo-paganini/n1-andantino-v-s-chords.htm
Привет, Гость.
Предлагаем пройти революционный курс по гитаре.
Подарок от PrimaNota.Ru, забирай!