PrimaNota.ru - самый крупный в мире бесплатный архив песенных текстов, аккордов, табулатур и нот


Паганини Никколо - Каприз №5 - аккорды и текст, видео

Регистрация Запомнить меня
Войти через:  Facebook Google Twitter Vk Yandex Mail.ru

Паганини Никколо - Каприз №5 - аккорды и текст, видео

Печатать
Просмотров: 423
Каприз №5
Паганини Никколо
E|-------------------7--12---11-8-7----------------------------|
B|-----------------8----------------10-8-7---------------------|
G|-----------0---9-------------------------9-8-----------------|
D|---------2---9-------------------------------10-9-7----------|
A|-------2--------------------------------------------10-9-7-6-|
E|-0---3-------------------------------------------------------|
 
E|------------------------------------12--15----14-12-11-8-7-|
B|---------------------------------12------------------------|
G|---------------------0--------12---------------------------|
D|-------------------2-------14------------------------------|
A|-----------------2------14---------------------------------|
E|-8-7-5-3-2-0---3-------------------------------------------|

E|---------------------------------------|
B|-10-8-7--------------------------------|
G|--------9-8----------------------------|
D|------------10-9-7---------------------|
A|-------------------10-9-7-6------------|
E|----------------------------8-7-5-3-2--|

E|--------------------------12-15-19----17-15-14-12-11-8-7-|
B|-----------------------12--------------------------------|
G|-----------0--------12-----------------------------------|
D|---------2-------14--------------------------------------|
A|-------2------14-----------------------------------------|
E|-0---3---------------------------------------------------|

E|-----------------------------------------------------|
B|10-8-7-----------------------------------------------|
G|-------9-8-------------------------------------0-----|
D|-----------10-9-7----------------------------2-------|
A|------------------10-9-7-6-----------------2------14-|
E|---------------------------8-7-5-3-2-0---3-----------|


E|-------------15-19-24-23-20-19-------------------------|
B|-------12-17-------------------22-20-19----------------|
G|----12----------------------------------21-20-17-16----|
D|-14-------------------------------------------------19-|
A|-------------------------------------------------------|
E|-------------------------------------------------------|

E|-----------------------------------------|
B|-----------------------------------------|
G|-----------------------------------------|
D|-17-16-14-13-----------------------------|
A|-------------15-14-12-10-9-7-6-----------|
E|-------------------------------8-7-5-3-2-|

E|---------------------------------------------------|
B|-------------------------------------------1-2-3-4-|
G|-----------------------------------1-2-3-4---------|
D|---------------------------2-3-4-5-----------------|
A|-------------------3-4-5-6-------------------------|
E|-0---1-2-3-4-5-6-7---------------------------------|

E|-----------------------------------------------------------|
B|-5-4-3-2-------------------------------------------------5-|
G|---------5-4-3-2-----------------------------------------0-|
D|-----------------6-5-4-3-----------------------------------|
A|--------------------------7-6-5-4------------------------2-|
E|----------------------------------8-7-6-5-4-3-2-1-0--------|

E||---------------------------------|
B||---------------------------------|
G||-------------------9-7-5---------|
D||---5-9-5---7-9-7-5-------9-7-5---|
A||-7-------9---------------------9-|
E||---------------------------------|

E|----------------------------------|
B|----------------------------------|
G|-------------------9-7-5----------|
D|---5-9-5---7-9-7-5-------9-7-5----|
A|-7-------9----------------------9-|
E|----------------------------------|

E|----------------------------------|
B|----------------------------------|
G|------------------------------4---|
D|---6-9-6---7-10-7---4-7-4---5---5-|
A|-7-------7--------5-------5-------|
E|----------------------------------|

E|------------------------------------14-|
B|---------------------------------16----|
G|------------------------------16-------|
D|-----10-7------14----------16----------|
A|-6-9------10-7----13-14-18-------------|
E|---------------------------------------|

E|17-19-|-------------------------------------------------|
B|------|----------------------------17-15-13-------------|
G|------|----12-16-12----14-16-14-12----------16-14-12----|
D|------|-14----------16-------------------------------16-|
A|------|-------------------------------------------------|
E|------|-------------------------------------------------|

E|----------------|---------------------------------|
B|----------------|------------17-15-13-------------|
G|----12-16-12----|14-16-14-12----------16-14-12----|
D|-14----------16-|------------------------------16-|
A|----------------|---------------------------------|
E|----------------|---------------------------------|

E|-------------12----------------14-12----|---------|
B|-------12-------15-13-12-------------15-|13-12----|
G|----13----13-------------13-14----------|------14-|
D|-14-------------------------------------|---------|
A|----------------------------------------|---------|
E|----------------------------------------|---------|

E|---------------------------------------------|
B|---------------------------------------------|
G|-12-11------------------------12--------11---|
D|-------14-12-11-12-14-10-9-12----9-7-10----7-|
A|---------------------------------------------|
E|---------------------------------------------|

E|-------------------|--------------|
B|-------------------|--------------|
G|-----9-------7-----|--5-------5---|
D|-5-9---9-4-7---7-2-|5---2-1-5---1-|
A|-------------------|--------------|
E|-------------------|--------------|

E|---------------3--------5--------7--|--------8--------------|
B|-------------3--------7--------8----|------8-------11-------|
G|-----5-----4--------5--------7------|----9------------12----|
D|-0-4---4-5--------7--------9--------|-10--------11-------14-|
A|------------------------------------|-----------------------|
E|------------------------------------|-----------------------|

E|----10-------------------|----15-14-12----------------14-12-|
B|-------12-------13-10----|-------------15-13-12----13-------|
G|----------12----------11-|-12-------------------12----------|
D|12-----------12----------|----------------------------------|
A|-------------------------|----------------------------------|
E|-------------------------|----------------------------------|

E|----------------|----12-10-8--------------10-8-7----------|
B|-15-14-12-11----|-12---------12-10-9---10--------10-8-7---|
G|-------------11-|--------------------9------------------7-|
D|----------------|-----------------------------------------|
A|----------------|-----------------------------------------|
E|----------------|-----------------------------------------|

E|---8-7---------------------9-12-|15-9-|-15-10----|
B|-8-----10-8-7---------8-11------|-----|-------12-|
G|--------------9-7-6-9-----------|-----|----------|
D|--------------------------------|-----|----------|
A|--------------------------------|-----|----------|
E|--------------------------------|-----|----------|

E|----------------14-10------------------|----15-14-13-12-11-|
B|----------------------10---------------|-------------------|
G|-12----------------------11------------|-------------------|
D|----12-9--------------------12---------|-------------------|
A|---------10--------------------12-9----|-10----------------|
E|------------10----------------------10-|-------------------|

E|10-9-------------------------|------------------------------|
B|-----13-12-11-10-------------|------------------------------|
G|-----------------13-12-11-10-|----------------------------9-|
D|-----------------------------|-14-13-12-11-10-9-8-7-----9---|
A|-----------------------------|-----------------------10-----|
E|-----------------------------|------------------------------|

E|------------|-----------------------------------------|
B|------------|-----------------------------------------|
G|-7---7------|--------------7-------------------7------|
D|-------10-7-|----9-----------10-7----9-----------10-7-|
A|---9--------|-10------10-9--------10------10-9--------|
E|------------|------10------------------10-------------|

играть концовку 1
повторить от первой || и играть остальное

концовка 1

E|----------------------------------|
B|----------------------------------|
G|-----------5----------------------|
D|-5-9-7-5-4---7-4------------7-----|
A|-----------------7-10-9-7-6---9-6-|
E|----------------------------------|

E|-----------------------------------|
B|-----------------------------------|
G|----7--------7-------5-------4-----|
D|------9--------9-------5-------3---|
A|-10-----10-8-----8-7-----7-5-----5-|
E|-----------------------------------|

E|---8-------7------------------------|
B|-----8-------9------10--------8-----|
G|-------9-7-----7-------9--------7---|
D|-----------------10------10-9-----9-|
A|-7----------------------------------|
E|------------------------------------|

E|------------------------------------------|
B|----10--------8---------------------------|
G|-------9--------9------10----------9------|
D|-10------10-8-----8-------10---------9----|
A|--------------------12-------12-10-----10-|
E|------------------------------------------|

E|----13----------12-------------|-------------------|
B|-------13----------14-------15-|----------13-------|
G|----------14-12-------12-------|-14----------12----|
D|-------------------------15----|----15-14-------14-|
A|-12----------------------------|-------------------|
E|-------------------------------|-------------------|

E|-------------------------------------------------|
B|----15----------13-------------------------------|
G|-------14----------14-------15----------14-------|
D|-15-------15-13-------13-------15----------14----|
A|-------------------------17-------17-15-------15-|
E|-------------------------------------------------|

E|----18----------17----------15----------13-------|
B|-------18----------19----------15----------13----|
G|----------19-17-------17-15-------15-14-------14-|
D|-------------------------------------------------|
A|-17----------------------------------------------|
E|-------------------------------------------------|

E|----15-14-13-12-11-10-9-|------------------------|
B|------------------------|13-12-11-10-------------|
G|-12---------------------|------------13-12-11-10-|
D|------------------------|------------------------|
A|------------------------|------------------------|
E|------------------------|------------------------|

E|----------------------------------------|----11-|
B|----------------------------------------|-------|
G|---------------------------8-7---7------|-------|
D|-14-13-12-11-10-9-8-7----8---------10-7-|-------|
A|----------------------10-------9--------|-10----|
E|----------------------------------------|-------|

E|10-9-8-7-6-5-----------------|
B|-------------9-8-7-6---------|
G|---------------------9-8-7-6-|
D|-----------------------------|
A|-----------------------------|
E|-----------------------------|

E|----------------------------------|-----------|
B|----------------------------------|---4-------|
G|----------------------5-3---3-----|-----3-----|
D|-10-9-8-7-6-5-4-3---5---------6-3-|-------5---|
A|------------------6-------5-------|-6-------7-|
E|----------------------------------|-----------|

E|------------------------------|
B|2-------2-------6-------4-----|
G|--3-------3-------5-------5---|
D|----5-------5-------6-------7-|
A|------7-------8-------9-------|
E|------------------------------|

E|-----------------------------7----13-|-11-8-|
B|----8--------6-----------8-----------|------|
G|------7--------7-----7-----7---12----|------|
D|--------8--------6-----9-------------|------|
A|-10-------11-------8-----------------|------|
E|-------------------------------------|------|

E|----------------------------------|
B|8----------------------------9----|
G|--8------8--------------9-10---10-|
D|----9-10---10-8-------------------|
A|----------------11-10-8-----------|
E|----------------------------------|

E|----------------10----11-6-------------|
B|----------10-11----11------8-----------|
G|-8-7-------------------------8-7-8-6---|
D|-----10-8----------------------------8-|
A|---------------------------------------|
E|---------------------------------------|

E|---------------------------------|
B|-------------------9-8-6---------|
G|---5-8-5---6-8-6-5-------8-6-5---|
D|-6-------8---------------------8-|
A|---------------------------------|
E|---------------------------------|

E|---------------------------------|
B|-------------7-------7-------6---|
G|---5-8-5---8---8---8---8---6---6-|
D|-6-------6-------7-------8-------|
A|---------------------------------|
E|---------------------------------|

E|----------------------------------------|
B|----------------------11-10-8-----------|
G|---7-10-7----8-10-8-7---------10-8-7----|
D|-8--------10-------------------------10-|
A|----------------------------------------|
E|----------------------------------------|

E|-----------------------------------|
B|-----6-----6-9-6---6-9-6-----------|
G|---7---7--------------------8-12-8-|
D|-8-------8-------9-------10--------|
A|-----------------------------------|
E|-----------------------------------|

E|---------------8--------8---------9-------|
B|----11-8---------9--------10--------11----|
G|-------------------10-8------8---------10-|
D|-11------11-10-----------------11---------|
A|------------------------------------------|
E|------------------------------------------|

E|---------------------------------|-------14-18-|
B|----12-9-------------------------|-11-14-------|
G|---------10-------------------11-|-------------|
D|-11---------11-9-----------11----|-------------|
A|-----------------11-8-9-13-------|-------------|
E|---------------------------------|-------------|

E|-------------------------------11-14-|-----------------------|
B|---9-6----------------------11-------|-----------------------|
G|-------7---------------8-11----------|---8-11-8----9-11-9----|
D|-8-------8-6---------8---------------|-9--------11--------13-|
A|-------------8-5-6-9-----------------|-----------------------|
E|-------------------------------------|-----------------------|

E|---------------------|
B|---12----------12----|
G|11----11----12----12-|
D|---------14----------|
A|---------------------|
E|---------------------|

E|-------------------------------------------------|
B|-------14----------14----------16----------17----|
G|----13----13----15----15----15----15----16----16-|
D|-15----------16----------17----------18----------|
A|-------------------------------------------------|
E|-------------------------------------------------|

E|-------14----------14----------------------14----|
B|----14----14----16----16----15-18-15----14----14-|
G|-15----------16----------16----------15----------|
D|-------------------------------------------------|
A|-------------------------------------------------|
E|-------------------------------------------------|

E|-------------------12----|-------------------10----|
B|----13-16-13----12----12-|----11-14-11----10----10-|
G|-14----------13----------|-12----------11----------|
D|-------------------------|-------------------------|
A|-------------------------|-------------------------|
E|-------------------------|-------------------------|

E|---------------8----------------7---|------------|
B|----9-12-9---8---8---8-11-8---7---7-|---6-11-6---|
G|-10--------9-------9--------8-------|-7--------6-|
D|------------------------------------|------------|
A|------------------------------------|------------|
E|------------------------------------|------------|

E|--5-----------------------|
B|5---5------10--------11---|
G|---------9----9----9----9-|
D|------10--------10--------|
A|--------------------------|
E|--------------------------|

E|--------------------19-23---------------------|
B|--------------16-19------------10--------11---|
G|-----------16----------------9----9----9----9-|
D|-------116----------------10--------10--------|
A|-14-18----------------------------------------|
E|----------------------------------------------|

E|-------7-------14-19----15-19-15----17-19-17-|
B|-----7------16-------17----------19----------|
G|---8-----16----------------------------------|
D|-9-------------------------------------------|
A|---------------------------------------------|
E|---------------------------------------------|

E|----24-22-20-19-------------|-15-19-15----17-19-17-|
B|-20-------------22-20-19-17-|----------19----------|
G|----------------------------|----------------------|
D|----------------------------|----------------------|
A|----------------------------|----------------------|
E|----------------------------|----------------------|

E|----24-22-20-19-------------22-20-19-------------|
B|-20-------------22-21----22----------22-20-19----|
G|----------------------21----------------------19-|
D|-------------------------------------------------|
A|-------------------------------------------------|
E|-------------------------------------------------|

E|----20-19-17----------------19-17-15-------------|
B|-20----------20-19-17----19----------19-17-16----|
G|----------------------17----------------------16-|
D|-------------------------------------------------|
A|-------------------------------------------------|
E|-------------------------------------------------|

E|----17-15-14-------------|----15-12----------------|
B|-17----------17-15-13----|----------14-------------|
G|----------------------16-|-15----------15-12-------|
D|-------------------------|-------------------14----|
A|-------------------------|----------------------13-|
E|-------------------------|-------------------------|

E|-15-12-------------------14-11-------------------|
B|-------12----------------------------------------|
G|----------12-------------------14-11-------------|
D|-------------14----------------------13----------|
A|----------------14----------------------12-------|
E|-------------------15-12-------------------14-11-|

E|----12-11-10-9-8-7-6-------------------|
B|---------------------10-9-8-7----------|
G|------------------------------10-9-8-7-|
D|---------------------------------------|
A|---------------------------------------|
E|-12------------------------------------|

E|-----------------------------------|
B|-----------------------------------|
G|-----------------------5-4---4-----|
Добавлено: 25.10.2013
Другие материалы по этой песне:
  • Аккорды и текст

Страница создана 25.10.2013
http://primanota.ru/niccolo-paganini/kapriz-n5-chords.htm
Привет, Гость.
Предлагаем пройти революционный курс по гитаре.
Подарок от PrimaNota.Ru, забирай!