PrimaNota.ru - самый крупный в мире бесплатный архив песенных текстов, аккордов, табулатур и нот


Niccolo Fabi - Essere Speciale - аккорды и текст, видео

Регистрация Запомнить меня
Войти через:  Facebook Google Twitter Vk Yandex Mail.ru

Niccolo Fabi - Essere Speciale - аккорды и текст, видео

Печатать
Просмотров: 44
Essere Speciale
Niccolo Fabi
    INTRO:(x2)
    
    [G]                    [A]
    e-----------------------|-----------------------|
    B-----------------------|-----------------------|
    G------4----2----2------|------6----4-----4-----|
    D----0----0-------------|----0----0-------------|
    A-----------------------|-----------------------|
    E-3-------------------3/|-5-------------------5/|
    [Bm]                    [D]
    e-----------------------|-----------------------|
    B-----------------------|-----------------------|
    G------7----6----6------|------11---9-----9-----|
    D----0----0-------------|----0----0-------------|
    A-----------------------|-----------------------|
    E-7-------------------7/|-10-----------------10\|

    
    [G] Voglio che tu sia di[A]verso,
    io [Bm] voglio che tu sia speci[D]ale
    voglio che tu abbia qualcosa in più,
    della media nazionale

    s[G]pero che tu sia megli[A]o di me,
    e che [Bm] meriti di essere [D] lì
    e anche se non fosse poi così,
    è così che io voglio sperare

    che [E] tu non diventi lo s[F#]pecchio fedele
    di [Em7] ogni mia banali[Dsus2/F#]tà
    ma [G] dandomi un vetro che [A] sia trasparente
    mi ai[Em7]uti ogni giorno a us[Asus4]cire dal niente

    [G] [Dsus2/F#] Perché [G] voglio che tu sia speci[D]ale
    io [G] voglio che tu sia di[Bm7]verso
    io [G] voglio che mi aiuti a tro[D]vare
    ciò che ho pa[A]ura di essermi [G] pe____rso [D]

    INTRO x1

    Non [G] voglio sapere se ti [A] piace il mare,
    o tanto [Bm] meno se sai cucinare [D]
    voglio potermi identificare
    non in te, ma nel tuo ideale

    Non vorrei che tu dicessi quello che so
    ma quello che non so dire
    e so che è un gioco infantile
    ma lasciami immaginare

    che tu [E] sia la speranza la [F#] mia fratellanza
    il [Em7] sogno che ormai non ho [Dsus2/F#] più
    e qu[G]ando ho la testa chi[A]nata sul marmo
    tu [Em7] possa gridare e svegli[Asus4]are il mio sonno

    [G] [Dsus2/F#] Perché [G] voglio che tu sia speci[D]ale
    io [G] voglio che tu sia di[Bm7]verso
    io [G] voglio che mi aiuti a tro[D]vare
    ciò che ho pa[A]ura di essermi [G] pe____rso [D]...

    [G] Voglio che tu sia di[A]verso, io [Bm] voglio che tu sia speci[D]ale
    voglio che tu abbia qualcosa in più, della media nazionale

    e che tu [G] sia un [A] essere speci[Bm]ale, un [D] essere
    speci[G]ale, un [A] essere speci[Em7]ale, un [D] essere
    speci[G]ale, un [A] essere speci[Em7]ale, un [D] essere
    speciale....

    [Dsus2/F#]=200230

Добавлено: 12.12.2015
Другие материалы по этой песне:
  • Аккорды и текст

Страница создана 12.12.2015
http://primanota.ru/niccolo-fabi/essere-speciale-chords.htm
Привет, Гость.
Предлагаем пройти революционный курс по гитаре.
Подарок от PrimaNota.Ru, забирай!