PrimaNota.ru - самый крупный в мире бесплатный архив песенных текстов, аккордов, табулатур и нот


Niagara - Psychotrope - аккорды и текст, видео

Регистрация Запомнить меня
Войти через:  Facebook Google Twitter Vk Yandex Mail.ru

Niagara - Psychotrope - аккорды и текст, видео

Печатать
Просмотров: 43
Авторы музыки: Daniel Chenevez
Авторы текста: Muriel Laporte
Psychotrope
Niagara
-------------------------------------------------------------------------------
                             PSYCHOTROPE - Niagara
-------------------------------------------------------------------------------
Tabbed by: Pat Malavi
pat.malavi@gmail.com


Intro 
    A
e|-----------------------|---------------------------------------------------|
B|-----------------------|---------------------------------------------------|
G|--2---2p0---0----------|--2---2p0---0---------0----------------------------|
D|--2-------2-----0--1--2|--2-------2-----0h1h2---0h1h2----------------------|
A|--0--------------------|--0------------------------------------------------|
E|-----------------------|---------------------------------------------------|


Verses and Refrains

e|--------------------------------|------------------------------------------|
B|--------------------------------|------------------------------------------|
G|--------------------------------|------------------------------------------|
D|--------------------------------|------------------------------------------|
A|---0---0-----------0---0---3-5-3|---0---0-----------0---0---3---5----------|
E|-----------3---0----------------|-----------3-0-3--------------------------|


Chorus
    A       G        D  
e|---------------------------------------------------------------------------|
B|-------------------3--------1----------------------------------------------|
G|----2--2--0--------2-----------2p0-----------------------------------------|
D|----2-----0-0----0--0--0-1-2--------2--------------------------------------|
A|--0-0----------3-----------------------------------------------------------|
E|---------------------------------------------------------------------------|


[Intro]


[Verse 1]
A
Y'a des jours où tout va bien d'autres où c'est un peu compliqué 
A
Mais je vais bientôt disjoncter 
A
Sur la boîte il y a écrit respectez la dose indiquée 
A
J'ai envie de tout avaler


[Refrain 1]
A
Et quand les murs se mettent à trembler
A
Dans la tourmente je m'accroche à un comprimé
A
Dès que vient l'ennui je prends le paquet
A
Et la vie m'apparaît beaucoup plus colorée


[Chorus]
            A           G      D   
Et je monte haut, haut, oh oui
                A      G              D
Sur ma balle de coton, juste avant le plongeon
            A            G        D
Et tout est clair, clair si clair
               A         G               D
Oh pour des millénaires, je me sens plus légère


[Verse 2]
A
Encore une autre pilule qui me met la tête au placard
A
Je me sens mieux dans le brouillard
A
Échouée sur l'oreiller comme une baleine sans cauchemar
A
J'atterris sur un nénuphar


[Refrain 2]
A
Des monstres verts se mettent à grimper
A
Moi je reste enfermée je ne veux pas y penser
A
Des roses des bleues c'est mon chapelet
A
Le futur me promet d'être un peu plus parfait


[Chorus]
            A           G      D   
Et je monte haut, haut, oh oui
                A      G              D
Sur ma balle de coton, juste avant le plongeon
            A            G        D
Et tout est clair, clair si clair
               A         G               D
Oh pour des millénaires, je me sens plus légère


[Refrain 3]
A
Les pieds du lit se sont envolés
A
Et la vie m'apparaît beaucoup plus colorée
A
Des roses des bleues c'est mon chapelet
A
Le futur me promet d'être un peu plus parfait


[Chorus]
            A           G      D   
Et je monte haut, haut, oh oui
                A      G              D
Sur ma balle de coton, juste avant le plongeon
            A            G        D
Et tout est clair, clair si clair
               A         G               D
Oh pour des millénaires, je me sens plus légère


            A           G      D   
Et je monte haut, haut, oh oui
                A      G              D
Sur ma balle de coton, juste avant le plongeon
            A            G        D
Et tout est clair, clair si clair
               A         G               D
Oh pour des millénaires, je me sens plus légère
Добавлено: 12.06.2016
Другие материалы по этой песне:
  • Аккорды и текст

Страница создана 12.06.2016
http://primanota.ru/niagara/psychotrope-chords.htm
Привет, Гость.
Предлагаем пройти революционный курс по гитаре.
Подарок от PrimaNota.Ru, забирай!