PrimaNota.ru - самый крупный в мире бесплатный архив песенных текстов, аккордов, табулатур и нот


Niagara - Assez - бас-таба, видео

Регистрация Запомнить меня
Войти через:  Facebook Google Twitter Vk Yandex Mail.ru

Niagara - Assez - бас-таба, видео

Печатать
Просмотров: 91
Уроки эстрадного вокала в Санкт-Петербурге
Авторы музыки: Daniel Chenevez
Авторы текста: Daniel Chenevez
-------------------------------------------------------------------------------
                             ASSEZ - Niagara
-------------------------------------------------------------------------------
Tabbed by: Koolbear
E-mail:

Tuning: EADG

Le refrain a besoin d'être retravaillé (méchament).. en attendant ça fait la soudure..

  Intro
G|-----------------|-----------------|-----------------|-----------------|
D|-----------------|-----------------|-----------------|-----------------|
A|-7---7-5-7-5---5-|-7---7-5---5---5-|-7---7-5-7-5---5-|-7---7-5---5---5-| X2
E|-------------7---|---------7---7---|-------------7---|---------7---7---|

  Couplet 1
G|-----------------|-----------------|-----------------|-----------------|
D|-----------------|-----------------|-----------------|-----------------|
A|-7---7-5-7-5---5-|-7---7-5---5---5-|-7---7-5-7-5---5-|-7---7-5---5---5-|
E|-------------7---|---------7---7---|-------------7---|---------7---7---|

G|-----------------|-----------------|-----------------------------------|
D|-----------------|-----------------|-----------------------------------|
A|-----------------|-----------------|-----------------------------------|
E|-5---5-3-5-3-0-3-|-5---5-3-0-3-0-3-|-5---5-3-5-3-0-3-|-5---5-3-0-3-0-3-|

G|-----------------|-----------------|-----------------|-----------------|
D|-----------------|-----------------|-----------------|-----------------|
A|-7---7-5-7-5---5-|-7---7-5---5---5-|-7---7-5-7-5---5-|-7---7-5---5---5-|
E|-------------7---|---------7---7---|-------------7---|---------7---7---|

  Refrain
G|-----------------|-----------------|-----------------------------------|
D|-----------------|-----------------|-----------------------------------|
A|------5\7--7-----|-------5-7-5-7---|------5\7--7-----|-------5-7-5-7---|X2
E|0--------------7-|0--------------7-|0--------------7-|0--------------7-|

  Break
G|-----------------|-----------------|-----------------|-----------------|
D|-----------------|-----------------|-----------------|-----------------|
A|-7---7-5-7-5---5-|-7---7-5---5---5-|-7---7-5-7-5---5-|-7---7-5---5---5-| X2
E|-------------7---|---------7---7---|-------------7---|---------7---7---|

  Couplet 2
G|-----------------|-----------------|-----------------|-----------------|
D|-----------------|-----------------|-----------------|-----------------|
A|-7---7-5-7-5---5-|-7---7-5---5---5-|-7---7-5-7-5---5-|-7---7-5---5---5-|
E|-------------7---|---------7---7---|-------------7---|---------7---7---|

G|-----------------|-----------------|-----------------------------------|
D|-----------------|-----------------|-----------------------------------|
A|-----------------|-----------------|-----------------------------------|
E|-5---5-3-5-3-0-3-|-5---5-3-0-3-0-3-|-5---5-3-5-3-0-3-|-5---5-3-0-3-0-3-|

G|-----------------|-----------------|-----------------|-----------------|
D|-----------------|-----------------|-----------------|-----------------|
A|-7---7-5-7-5---5-|-7---7-5---5---5-|-7---7-5-7-5---5-|-7---7-5---5---5-|
E|-------------7---|---------7---7---|-------------7---|---------7---7---|

G|-----------------|-----------------|-----------------------------------|
D|-----------------|-----------------|-----------------------------------|
A|-----------------|-----------------|-----------------------------------|
E|-5---5-3-5-3-0-3-|-5---5-3-0-3-0-3-|-5---5-3-5-3-0-3-|-5---5-3-0-3-0-3-|

Refrain
G|-----------------|-----------------|-----------------------------------|
D|-----------------|-----------------|-----------------------------------|
A|------5\7--7-----|-------5-7-5-7---|------5\7--7-----|-------5-7-5-7---|
E|0--------------7-|0--------------7-|0--------------7-|0--------------7-|

Solo
G|-----------------|-----------------|-----------------|-----------------|
D|-----------------|-----------------|-----------------|-----------------|
A|-7---7-5-7-5---5-|-7---7-5---5---5-|-7---7-5-7-5---5-|-7---7-5---5---5-|
E|-------------7---|---------7---7---|-------------7---|---------7---7---|

G|-----------------|-----------------|-----------------------------------|
D|-----------------|-----------------|-----------------------------------|
A|-----------------|-----------------|-----------------------------------|
E|-5---5-3-5-3-0-3-|-5---5-3-0-3-0-3-|-5---5-3-5-3-0-3-|-5---5-3-0-3-0-3-|

  Couplet 3
G|-----------------|-----------------|-----------------|-----------------|
D|-----------------|-----------------|-----------------|-----------------|
A|-7---7-5-7-5---5-|-7---7-5---5---5-|-7---7-5-7-5---5-|-7---7-5---5---5-|
E|-------------7---|---------7---7---|-------------7---|---------7---7---|

G|-----------------|-----------------|-----------------------------------|
D|-----------------|-----------------|-----------------------------------|
A|-----------------|-----------------|-----------------------------------|
E|-5---5-3-5-3-0-3-|-5---5-3-0-3-0-3-|-5---5-3-5-3-0-3-|-5---5-3-0-3-0-3-|

Refrain ad Lib
G|-----------------|-----------------|-----------------------------------|
D|-----------------|-----------------|-----------------------------------|
A|------5\7--7-----|-------5-7-5-7---|------5\7--7-----|-------5-7-5-7---|X x
E|0--------------7-|0--------------7-|0--------------7-|0--------------7-|


| /  slide up
| \  slide down
| h  hammer-on
| p  pull-off
| ~  vibrato
| +  harmonic
| x  Mute note
===============================================================================
Добавлено: 22.12.2015
Другие материалы по этой песне:
  • Аккорды и текст

Страница создана 22.12.2015
http://primanota.ru/niagara/assez-chords.htm
Привет, Гость.
Предлагаем пройти революционный курс по гитаре.
Подарок от PrimaNota.Ru, забирай!