PrimaNota.ru - самый крупный в мире бесплатный архив песенных текстов, аккордов, табулатур и нот


Ni Voz Ni Voto - No Antisocial - таба, видео

Регистрация Запомнить меня
Войти через:  Facebook Google Twitter Vk Yandex Mail.ru

Ni Voz Ni Voto - No Antisocial - таба, видео

Печатать
Просмотров: 70
Bueno , este el primer tab que posteo aquí en ultimate guitar , espero que esté bien

Este tab es de la canción  "No Antisocial" de la banda peruana Ni Voz Ni Voto

Ojo : La afinación es EBGDGC , o sea solo tienes que cambiar las 2 cuerdas mas gruesas


Intro

E--------------------------------------------------|
B--------------------------------------------------|
G--------------------------------------------------|
D-----5---5---5---5---5------5---5---5---5---5-----|
G---8---8---8---8---8------8---8---8---8---8-------|
C-0----------------------0-------------------------|


!!!NO QUIERO SER ANTISOCIAL!!!

                     No  No                    No quiero ser antoisical

E------------------------------------------------------------------------|
B------------------------------------------------------------------------|
G------------------------------------------------------------------------|
D------------------------------------------------------------------------|
G--0-0---0-7---0-3---8---8-------0-0---0-7-3----8-8-8-8-8---1-1-1-1-1----|
C--0-0---0-7---0-3---8---8-------0-0---0-7-3----8-8-8-8-8---1-1-1-1-1----|


                  Hoy ... Estoy solo ... Aqui ... Estoy solo

E---------------/--------------------------------------------|
B---------------/--------------------------------------------|
G---------------/--------------------------------------------|
D---------------/-----5--5--5--5--5-----5--5---5--5---5----5-|
G-0--2-3---8--10/---8--8--8--8--8-----8--8---8--8---8----8---|
C-0--2-3---8--10/-0------------------7-----------------0-----|..(*)


En estos versos se usa el riff principal:


Quiero estar solo y no aguanto compañía
y así de lo que te digo no es bueno no te rías
que no es un juegos sentir lo que yo siento
porque , cada día que pasa es peor lo que me espera
por eso ayúdame y dime que es lo que me pasa
para vencer a esta ***** que me mata
y así , volver a sonreír ,vivir de nuevo feliz
y por lo menos sentir que de algo pudo servir



Repetir 3 veces esto:

E----------------------------------------|
B----------------------------------------|
G----------------------------------------|
D----------------------------------------|
G----0-0-----0-7-0-3---------------------|
C----0-0-----0-7-0-3---------------------|


                         (dejar sonar la ultima nota )
E-------------------------------------------------------|
B-------------------------------------------------------|
G-------------------------------------------------------|
D-------------------------------------------------------|
G----0---0---0---0--------0-----------------------------|
C----0---0---0---0--------0-----------------------------|





No quiero escapar de mi realidad ...... No quiero escapar de mi realidad...

E----------------------------------------------------------------------|
B----------------------------------------------------------------------|
G----------------------------------------------------------------------|
D-5-5-5-5-5-5-5-5-5-5-5-5-5-5-5-5-5-5-5-5-5-5-5-5-5-5-5-5-5-5-5-5-5----|
G-8-8-8-8-8-8-8-8-8-8-8-8-8-8-8-8-8-8-8-8-8-8-8-8-8-8-8-8-8-8-8-8-8----|
C-0-0-0-0-0-0-0-0-0-0-0-0-0-0-0-0-0-0-0-0-0-0-0-0-0-0-0-0-0-0-0-0-0----|


Final

E---------------------------------------------|
B---------------------------------------------|
G---------------------------------------------|
D---------------------------------------------|
G---------------------------------------------|
C-0///--10--8///---3///-2////--0--------------|




Pagina web oficial de Ni Voz Ni Voto :  www.nivoznivoto.com
Добавлено: 14.11.2013
Другие материалы по этой песне:
  • Аккорды и текст

Страница создана 14.11.2013
http://primanota.ru/ni-voz-ni-voto/no-antisocial-chords.htm
Привет, Гость.
Предлагаем пройти революционный курс по гитаре.
Подарок от PrimaNota.Ru, забирай!