PrimaNota.ru - самый крупный в мире бесплатный архив песенных текстов, аккордов, табулатур и нот


Nguyen Le - Bakida - таба, видео

Регистрация Запомнить меня
Войти через:  Facebook Google Twitter Vk Yandex Mail.ru

Nguyen Le - Bakida - таба, видео

Печатать
Просмотров: 108
Уроки эстрадного вокала в Санкт-Петербурге
------------------------------------------------------------------------------
                             BAKIDA – Nguyên Lê  (www.nguyen-le.com)
------------------------------------------------------------------------------
Tabbed by:axtzff
Email:ttnoir@hotmail.de

  (00:28)
e|---6--9--6-------------------------------------|
B|-6---------9-p-6----9-6-----9------------------|
G|-----------------8----6-h-8---5-5-8-8-5--------|
D|----------------------------------------8-8-6-8|
A|-----------------------------------------------|
E|-----------------------------------------------|


e|-6-6-6-6--9--6---6---9---------6-9-6----------|
B|-7-------------9------6-6-6--9-------9-9-6-6--|
G|-6--------------------------------------------|
D|-6--------------------------------------------|
A|-8--------------------------------------------|
E|----------------------------------------------|


e|--------6-/-9--6--------------------4---------|
B|------6-----------9--6--4-/-6----4--------4-4-|
G|-3-3--------------------2-/-4--6------5-5-----|
D|------------------------2-/-4-----------------|
A|----------------------------------------------|
E|----------------------------------------------|

e|---------------------|
B|---------------------|
G|-5--3-3---3-------3--|
D|--------6---------3--|
A|------------1--------|
E|--------------2------|


  (01:17)
e|-13-18--16------------------------------------|
B|------------18--13--15-/-16--14--13-----------|
G|------------------------------------15-13-----|
D|------------------------------------------15--|
A|----------------------------------------------|
E|----------------------------------------------|

e|----------------------------------------------|
B|----------------------------------------------|
G|----------------------------------------------|
D|----------------------------------------------|
A|-16--15--13--15-/-16--15--13--8---10-/-11-h-8-|
E|----------------------------------------------|


e|---------9-----6--11---6----------------------|
B|------11---9-6-------6---6--------9----6--6-9-|
G|---10----------------------8--6------8--------|
D|-8------------------------------8-------------|
A|----------------------------------------------|
E|----------------------------------------------|


e|---------------------------6--9--------------|
B|---------------------6--9------------6-------|
G|-----6-8--6-6-6--4---6----------8—6----8-p-6-|
D|-8-8------6---6--4---------------------------|
A|---------------------------------------------|
E|---------------------------------------------|

e|-----------------9--11--9-----------9-9-11-9-|
B|--------------------------11--9--------------|
G|-------11---10------------------10-----------|
D|-8-11--13---11-------------------9-----------|
A|-9--8----------------------------------------|
E|---------------------------------------------|


e|-------------------6-5-------9-11-9----------|
B|-11--9-h-11-----5--6----8-7---------11-9-----|
G|---------9----4----5----7----------------10--|
D|------------6-----------7--------------------|
A|---------------------------------------------|
E|---------------------------------------------|


e|-9-9--9--11--9-----------------|
B|---------------11---9---9-h-11-|
G|-------------------------------|
D|-------------------------------|
A|-------------------------------|
E|-------------------------------|

  (02:19)
e|-11---9--16~--13b--11-11-h-16—(13-13)--11-11-|
B|---------------------------------------------|
G|---------------------------------------------|
D|---------------------------------------------|
A|---------------------------------------------|
E|---------------------------------------------|


e|-----11-13-----------------------------------|
B|-14--------11-(11)-/-9-(9)-/-11-/-14---------|
G|---------------------------------------------|
D|--------------------------------------11-----|
A|---------------------------------------------|
E|---------------------------------------------|


e|---------------------------------------------|
B|---------------------------------------------|
G|-----------------13--------------------------|
D|-13-/-15-p-13--11---11-/10--10--8-8----8-----|
A|-------------13---------------------11-------|
E|---------------------------------------------|


e|-----------------------------------------------|
B|-----------------------------------------------|
G|-----------------------------------------------|
D|-10-/-11-----------------------11--13-13-11----|
A|----------13-p-11------------------------------|
E|------------------13-11-h-13-------------------|


e|----------------------------------------11---|
B|---------------14-13-13—11--11-/-9-/-11------|
G|-11--10--10----------------------------------|
D|------------13-------------------------------|
A|---------------------------------------------|
E|---------------------------------------------|


e|---------------------------|
B|-6-/---11------------------|
G|----------10-8---------8---|
D|--------------11-10-11-----|
A|-------------------------8-|
E|---------------------------|

  (03:01)
e|-18-18-18--21--21--23--23----18-18--21--21----|
B|----------------------------------------------|
G|----------------------------------------------|
D|----------------------------------------------|
A|----------------------------------------------|
E|----------------------------------------------|


e|----------------------------------------------|
B|-18~-21~-------21~-18-16--14--16--18----------|
G|---------20-18-----------------------17—10-10-|
D|----------------------------------------------|
A|----------------------------------------------|
E|----------------------------------------------|


e|---------9-----6---11---6---------------------|
B|------11---9-6--------6---6-------9---6---6-9-|
G|---10-----------------------8-6-----8---------|
D|-8------------------------------8-------------|
A|----------------------------------------------|
E|----------------------------------------------|

e|----------------------------6-9---------------|
B|---------------------6---9-----------6--------|
G|-----6-8--6-6-6--4---6----------8—6----8-p-6--|
D|-8-8------6---6--4----------------------------|
A|----------------------------------------------|
E|----------------------------------------------|

e|---------------9-11-9------------9-9--11--9---|
B|-----------------------11-9-------------------|
G|-------11-10-----------------10---------------|
D|-8--11-13-11-----------------9----------------|
A|-9--8-----------------------------------------|
E|----------------------------------------------|


e|-------------------6-5-------|
B|-11-9-h-11-----5---6-----8-7-|
G|--------9----4-----5-----7---|
D|-----------6-------------7---|
A|-----------------------------|
E|-----------------------------|

e|-9-11-9-------------9-11-9-------------------|
B|---------11-9--------------11-11-------------|
G|--------------10-9------------9-----8-10-11--|
D|-----------------8---------------------------|
A|---------------------------------------------|
E|---------------------------------------------|

[...bass...]
                                         (04:39)
e|-9-11-9------------9—11--9-----------------7-|
B|---------11—9--------------11—9-h-11-------7-|
G|--------------10---------------------------9-|
D|------------------------------------------11-|
A|---------------------------------------------|
E|---------------------------------------------|
Добавлено: 05.04.2012
Другие материалы по этой песне:
  • Аккорды и текст

Страница создана 05.04.2012
http://primanota.ru/nguyen-le/bakida-chords.htm
Привет, Гость.
Предлагаем пройти революционный курс по гитаре.
Подарок от PrimaNota.Ru, забирай!