PrimaNota.ru - самый крупный в мире бесплатный архив песенных текстов, аккордов, табулатур и нот


Next G - Know That - таба, видео

Регистрация Запомнить меня
Войти через:  Facebook Google Twitter Vk Yandex Mail.ru

Next G - Know That - таба, видео

Печатать
Просмотров: 118
Уроки эстрадного вокала в Санкт-Петербурге
-------------------------------------------------------------------------------
                             Know That (C Major) – Next G
-------------------------------------------------------------------------------
Tabbed by: Ptogi
Email: jffy.sanchez@yahoo.com

Tuning: Standard

Intro:
e|---------------------------------------------------------------------------|
B|-----8-10----10-10-8--10-10/12---------10/12-10---10-10-8-10-10/12---------|
G|--9----------------------------11------------------------------------------|
D|---------------------------------------------------------------------------|
A|---------------------------------------------------------------------------|
E|---------------------------------------------------------------------------|

e|--10h12-10-12--------------------------------------------10h12-------------|
B|--------------12---10h12-10---8-10-10h12---12-10-8-------------------------|
G|---------------------------------------------------11-9--------------------|
D|---------------------------------------------------------------------------|
A|---------------------------------------------------------------------------|
E|---------------------------------------------------------------------------|


The whole song is just two chords repeated for four counts.

       A                   D
e|-----5---------------5--------------------------------------------------------|
B|-----5---------------6--------------------------------------------------------|
G|-----6---------------6--------------------------------------------------------|
D|-----7---------------6--------------------------------------------------------|
A|-----7---------------5--------------------------------------------------------|
E|-----5---------------x--------------------------------------------------------|
e|------------------------------------------------------------------------------|
The sun is shining, the weather is right
A perfect day for us to unite
As i look at you today babeh
I just wish i was your man
Girl, don't you know that?
Every night on my knees i pray
Askin that you will be mine someday
Dreamin bout you wearin my ring
Singin to you at our wedding
Can't you see it's you and me
Did you know i feel this way baby?
Did you know that girl?
Did you know that- babe
Tell me that you know that girl
Do you know that?
See my brother i know exactly what you mean
That this girl i talk of- the same thing to me
Dark brown eyes, this girl's an angel in disguise
But only if i could tell her that i-
I gotta hold her tight in my arms
I wanna fill her up with my charms
I wanna make her smile every day
Tell her i love her in every way
You my queen, me your king
Did you know i feel this way baby?
Did you know that girl?
Did you know that- girl
Tell me that you know that girl
Do you know that?
[Instrumental]
The sun is shinin, the weather is right
A perfect day for us to unite
As i look at you today babeh
I just wish i was your man
Girl, don't you know that?
Every night on my knees i pray
Askin that you will be mine someday
Dreamin bout you wearin my ring
Singin to you at our wedding
can't you see it's you and me
Did you know i feel this way baby?
Did you know that girl?
Did you know that- girl
Tell me that you know that girl
Do you know that?
Did you know that girl?
Did you know that
Tell me that you know that girl
Do you know that?

The Next Generation's official site:
http://www.myspace.com/thenextgeneration



************************************

| /   slide up
| \   slide down
| h   hammer-on
| p   pull-off
| ~   vibrato
| +   harmonic
| x   Mute note
| b   Bend
| pb  Pre-bend
| br  Bend release
| pbr Pre-bend release
| brb Bend release bend

************************************
Добавлено: 19.05.2012
Другие материалы по этой песне:
  • Аккорды и текст

Страница создана 19.05.2012
http://primanota.ru/next-g/know-that-chords.htm
Привет, Гость.
Предлагаем пройти революционный курс по гитаре.
Подарок от PrimaNota.Ru, забирай!