PrimaNota.ru - самый крупный в мире бесплатный архив песенных текстов, аккордов, табулатур и нот


Newton Faulkner - Waiting On You - таба, видео

Регистрация Запомнить меня
Войти через:  Facebook Google Twitter Vk Yandex Mail.ru

Newton Faulkner - Waiting On You - таба, видео

Печатать
Просмотров: 67
-------------------------------------------------------------------------------
                             Waiting On You - Newton Faulkner
-------------------------------------------------------------------------------
Tabbed by: Jamie Phillips
E-mail: trueblue93@hotmail.co.uk

Tuning: EBEG#BE (Open E, capo 4)
        If you prefer, Open D with capo on 6

This is just a rough version I tabbed out by ear, leaving a lot of room for you
to play around with the strumming/slap patterns. The more you let ring, the
better. I haven't managed to tab out the percussion in the latter parts of the
song (in the outro) but this gives you a general idea.

Intro/verse
|-------(0)-------------h5\4\2p0-----(0)-----(0)-----(0)----------+7--------|
|-------(0)--------------------------(0)-----(0)-----(0)--------------------|
|-0h1h3--3--0-x-1-0-x-0-h5\3\1p0----------------------0--------------+7-----|
|-0---x-----0-x-0-0-x-0------------2-------0-------2-------0----------------|
|---------------------------------------x-------x-------x-------------------|
|-0---x--0--0-x-0-0-x-0------------5----x--5----x--5----x--5----------------|

|---------------------------------0------0------0---------------------------|
|---------------------------------0------0------0---------------------------|
|---------------------------------------------------------------------------|
|-0-------------------------------------------------------------------------|
|---x-4-0-x-0h2-0-x----h7/9--x--7---x--5---x--4---x-------------------------|
|-4-x-4---x-5-----x-0--------x------x------x------x-------------------------|

Chorus/Bridge (?)

|-----------------------------------4----7----7----4------------------------|
|----------------------------------5----5----5----5----7~-4-x---------------|
|-0h5-x-0h5-x-0h5-x-0h5/7-x-0-----0----0----0----0----0-----x---------------|
|-0h5-x-0h5-x-0h5-x-0h5/7-x-0----0----0----0----0----0----------------------|
|---------------------------------------------------------------------------|
|-0h5-x-0h5-x-0h5-x-0h5/7-x-0-------------------------------x---------------|


|-----------------------------0-------0-------0--------0-----0--------------|
|-----------------------------0-------0-------0--------0-----0--------------|
|-0h5-x-0h5-x-0h5-x-0h5/7--0----x--0----x--3-----x--3-----x-----------------|
|-0h5-x-0h5-x-0h5-x-0h5/7--0----x--0----x--2-----x--2-----x-----------------|
|------------------------------------------4--------4-----------------------|
|-0h5-x-0h5-x-0h5-x-0h5/7--0----x--0----x--------x--------x-----------------|

Outro
|---------------------------0-------0-------0-------0-------0-------0-------|
|---------------------------0-------0-------0-------0-------0-------0-------|
|---------------------------------------------------------------------------|
|- after verse -------------------------------------------------------------|
|----------------h7/9--x--7----x--5----x--4----x--2----x--0----x-------x----|
|----------------------x-------x-------x-------x-------x-------x--5----x--0-|


************************************
| x   hand slap
| /   slide up
| \   slide down
| h   hammer-on
| p   pull-off
| ~   vibrato
| +   harmonic
| b   Bend
| pb  Pre-bend
| br  Bend release
| pbr Pre-bend release
| brb Bend release bend

************************************
Добавлено: 22.08.2013
Другие материалы по этой песне:
  • Аккорды и текст

Страница создана 22.08.2013
http://primanota.ru/newton-faulkner/waiting-on-you-chords.htm
Привет, Гость.
Предлагаем пройти революционный курс по гитаре.
Подарок от PrimaNota.Ru, забирай!