PrimaNota.ru - самый крупный в мире бесплатный архив песенных текстов, аккордов, табулатур и нот


Newton Faulkner - Ufo - таба, видео

Регистрация Запомнить меня
Войти через:  Facebook Google Twitter Vk Yandex Mail.ru

Newton Faulkner - Ufo - таба, видео

Печатать
Просмотров: 116
Newton Faulkner - UFO

Because there is no tabs of this amazing song, me and my friend Charlie decided we would 
and tab this song out. We think its right, but you will have to make tht decisision for 
Ny this is my first tab, enjoy!

Intro / Chorus

e|----------------------------------------------------------|
B|----------------------------------------------------------|
G|---9h11----------11----------2---------------4------------|
D|----------------------------------------------------------|
A|-------------------------3------3---------5-----5---------|
D|---0--------0--0-----/3--------------3/5------------------|

Verse

e|---------------|
B|---------------|
G|---------------|
D|---------------|
A|-3--5-6-3--5-6-|
D|-3--5-6-3--5-6-|

The strange noise in the background is a sitar, I think
Добавлено: 06.04.2012
Другие материалы по этой песне:

Страница создана 03.04.2012
http://primanota.ru/newton-faulkner/ufo-chords.htm
Привет, Гость.
Предлагаем пройти революционный курс по гитаре.
Подарок от PrimaNota.Ru, забирай!