PrimaNota.ru - самый крупный в мире бесплатный архив песенных текстов, аккордов, табулатур и нот


Newton Faulkner - Losing Ground - таба, видео

Регистрация Запомнить меня
Войти через:  Facebook Google Twitter Vk Yandex Mail.ru

Newton Faulkner - Losing Ground - таба, видео

Печатать
Просмотров: 85
Tabbed by: LlamaCentral 

I DO NOT OWN ANY RIGHTS TO THIS SONG!

But, this is my tab so if you want to copy it somewhere make sure you ask me first!

Song: Losing Ground | Album: Studio Zoo

The lyrics may be off on this song as it has just been released, please bare that in mind!
All chords and notes are relative to the capo!
   
    E  A  D  G  B  E
C:  8  10 10 9  8  8
    
     E  A  D  G  B  E
C/B: 7  10 10 9  x  x

    E  A  D  G  B  E
Am: 5  7  7  5  5  5 


CAPO 2
 
VERSE TAB: (learn this before attempting the song, it takes a couple of goes!)

                                             Am
e|---------------------------------------------------------------|
B|---------------------------------------------------------------|
G|--0-2-0-5-4-2-0--------2-0-------------------------------------|
D|-----------------2-3-2-----3-2---------------------------------|
A|--------------------------------3-3-0-3-0----------------------|
E|---------------------------------------------------------------|

                                               C
e|---------------------------------------------------------------|
B|---------------------------------------------------------------|
G|--0-2-0-5-4-2-0--------2-0-------------------------------------|
D|-----------------2-3-2-----3-2---------------------------------|
A|--------------------------------3-3-0-3------------------------|
E|---------------------------------------------------------------|

VERSE:

Why are there always users? 
Why are there never falters? 
In my Covent 

I'm at the starting line 
I'm jumping the gun this time 
I'm out  
     (I've got a feeling)

CHORUS:

(Only play E and A strings for this one!)
               C                        C/B
I've got a feeling, no this is not the same

                       Am
Is the ground simply opening? 

         F
In this fight.

                      C
I think I'm losing ground

                     C/B
Find me some loaded dice
 
                         Am
Why is luck never on my side?

          F
In this fight.
 
F                                                     C
I think I'm losing, yes I'm losing, but I'm feeling fine.


VERSE: 
                                             Am
e|---------------------------------------------------------------|
B|---------------------------------------------------------------|
G|--0-2-0-5-4-2-0--------2-0-------------------------------------|
D|-----------------2-3-2-----3-2---------------------------------|
A|--------------------------------3-3-0-3-0----------------------|
E|---------------------------------------------------------------|

                                               C
e|---------------------------------------------------------------|
B|---------------------------------------------------------------|
G|--0-2-0-5-4-2-0--------2-0-------------------------------------|
D|-----------------2-3-2-----3-2---------------------------------|
A|--------------------------------3-3-0-3------------------------|
E|---------------------------------------------------------------|


Why are they always leaving 
And leaving my heart bleeding 
I don't need it 

Come with me on a plane 
We're going on holiday
I've got a feeling 
(start of chorus)

CHORUS:

              C                        C/B
I've got a feeling, no this is not the same

                       Am
Is the ground simply opening? 

         F
In this fight.

                      C
I think I'm losing ground

                     C/B
Find me some loaded dice
 
                         Am
Why is luck never on my side?

          F
In this fight.
 
F                                                     C
I think I'm losing, yes I'm losing, but I'm feeling fine.


INSTRUMENTAL:
                                               Am
e|-3-5-3-8-7-5-3--0-1-0-5-3-1-0----------------------------------|
B|-------------------------------1-1---1-------------------------|
G|-----------------------------------2---2-----------------------|
D|---------------------------------------------------------------|
A|---------------------------------------------------------------|
E|---------------------------------------------------------------|
                                                C
e|-3-5-3-8-7-5-3--0-1-0-5-3-1-0----------------------------------|
B|-------------------------------1-1---1-------------------------|
G|-----------------------------------2---------------------------|
D|---------------------------------------------------------------|
A|---------------------------------------------------------------|
E|---------------------------------------------------------------|


VERSE:

PALM MUTE THE ENTIRE VERSE
                                               Am
e|---------------------------------------------------------------|
B|---------------------------------------------------------------|
G|--0-2-0-5-4-2-0--------2-0-------------------------------------|
D|-----------------2-3-2-----3-2---------------------------------|
A|--------------------------------3-3-0-3-0----------------------|
E|---------------------------------------------------------------|

                                          (palm mute end, play C)
e|---------------------------------------------------------------|
B|---------------------------------------------------------------|
G|--0-2-0-5-4-2-0--------2-0-------------------------------------|
D|-----------------2-3-2-----3-2---------------------------------|
A|--------------------------------3-3-0-3------------------------|
E|---------------------------------------------------------------|

I'm on the firing line 
I'm leaving this all behind me 
I'm going fishing 

I need some peace and quiet 
I need to change my diet 
I'm on a mission
         (start playing C)

CHORUS: 

                     C/B                                      
No, this is not the same

                       Am
Is the ground simply opening? 

         F
In this fight.

                      C
I think I'm losing ground

                     C/B
Find me some loaded dice
 
                         Am
Why is luck never on my side?

          F
In this fight.
 
F                                                     C
I think I'm losing, yes I'm losing, but I'm feeling fine.


I hope this tab is correct, it sounds alright to me but there might be some minor 
adjustments here and there!

Thanks. :)
Добавлено: 07.10.2013
Другие материалы по этой песне:
  • Аккорды и текст

Страница создана 07.10.2013
http://primanota.ru/newton-faulkner/losing-ground-chords.htm
Привет, Гость.
Предлагаем пройти революционный курс по гитаре.
Подарок от PrimaNota.Ru, забирай!