PrimaNota.ru - самый крупный в мире бесплатный архив песенных текстов, аккордов, табулатур и нот


Newton Faulkner - Human Love - таба, видео

Регистрация Запомнить меня
Войти через:  Facebook Google Twitter Vk Yandex Mail.ru

Newton Faulkner - Human Love - таба, видео

Печатать
Просмотров: 130
-------------------------------------------------------------------------------
                             Newton Faulkner - Human Love
-------------------------------------------------------------------------------
Tabbed by: Daniel Woodier
E-mail: woody.scanlan@btinternet.com

Tuning:CFCFGc

Entire song (bar the noodling) is palm muted, slaps on the strings will be marked as "x"

Verse
c|------x------------x------------x------------x-----------------------------|
G|---2--x----2-----3-x---3------2-x----2-----2-x----2------------------------|
F|---0--x----0-----0-x---0------0-x----0-----0-x----0------------------------|
C|------x------------x------------x------------x-----------------------------|
F|-0----x-0----0-2---x-2---2------x------------x-----------------------------|
C|------x------------x--------2---x--2---2-2---x--2---2----------------------|(x1)

c|------x------------x------------x------------x-----------------------------|
G|---5--x---5------5-x---5------2-x---2------2-x----2------------------------|
F|---0--x---0------0-x---0------0-x---0------0-x----0------------------------|
C|------x------------x------------x------------x-----------------------------|
F|-4----x-4----4-5---x-5---5-0----x-0----0-0---x--0---0----------------------|
C|------x------------x------------x------------x-----------------------------|(x1)

c|------x------------x------------x------------x-----------------------------|
G|---2--x----2-----3-x---3------2-x----2-----2-x----2------------------------|
F|---0--x----0-----0-x---0------0-x----0-----0-x----0------------------------|
C|------x------------x------------x------------x-----------------------------|
F|-0----x-0----0-2---x-2---2------x------------x-----------------------------|
C|------x------------x--------2---x--2---2-2---x--2---2----------------------|(x1)

c|------x------------x------------x------------x-----------------------------|
G|---5--x---5------5-x---5------2-x---2------2-x----2------------------------|
F|---0--x---0------0-x---0------0-x---0------0-x----0------------------------|
C|------x------------x------------x------------x-----------------------------|
F|-4----x-4----4-5---x-5---5-0----x-0----0-0---x--0---0----------------------|
C|------x------------x------------x------------x-----------------------------|(x1)

chorous

c|------x------------x------------x------------x-----------------------------|
G|---7--x---7------7-x---7------9-x---9------9-x----9------------------------|
F|---5--x---5------6-x---6------7-x---7------8-x----8------------------------|
C|------x------------x------------x------------x-----------------------------|
F|-5----x-5----5/6---x-6---6/7----x-7----7/8---x--8---8----------------------|
C|------x------------x------------x------------x--------\(continued)---------|(x1)

c|------x------------x------------x------------x------------x----------------|
G|---2--x---2-----2--x---2------5-x---5------2-x----2-----2-x---2------------|
F|---0--x---0-----0--x---0------0-x---0------0-x----0-----0-x---0------------|
C|------x------------x------------x------------x------------x----------------|
F|------x------------x-------5----x-5----5-0---x--0---0-----x----------------|
C|-2----x-2---2-2----x-2---2------x------------x--------4---x--4--4----------|(x2)

Verse 
c|------x------------x------------x------------x-----------------------------|
G|---2--x----2-----3-x---3------2-x----2-----2-x----2------------------------|
F|---0--x----0-----0-x---0------0-x----0-----0-x----0------------------------|
C|------x------------x------------x------------x-----------------------------|
F|-0----x-0----0-2---x-2---2------x------------x-----------------------------|
C|------x------------x--------2---x--2---2-2---x--2---2----------------------|(x1)

c|------x------------x------------x------------x-----------------------------|
G|---5--x---5------5-x---5------2-x---2------2-x----2------------------------|
F|---0--x---0------0-x---0------0-x---0------0-x----0------------------------|
C|------x------------x------------x------------x-----------------------------|
F|-4----x-4----4-5---x-5---5-0----x-0----0-0---x--0---0----------------------|
C|------x------------x------------x------------x-----------------------------|(x1)

Basically that's the jist of the entire song! ( the final two bars might be misplaced, sorry!)
If there's any problems or you've figured out the noodle please let me know, i'm currently working on it.

c|--------0---------------0h2p0----2/5\2-0----------------------|
G|----0h2---2p0----------------------------2-2/5\2p0-2-0--------|
F|--------------0----------------------------------------0------|
C|------------------0h2p0---------------------------------------|
F|--0-------------2---------------------------------------------|
C|-------------------------------2------------------------------|


(thanks to Michael Allan for this part of the noodle)
c|---------------------------9p0--2/5\2p0----------------------------|
G|------------------7-----5/7-------------2-2/5\2p0-2-0--------------|
F|-4-7-----2/4\2p0--------------------------------------0------------|
C|-----7/9------------7/9--------------------------------------------|
F|-----------------4------------0------------------------------------|
C|-------------------------------------------------------------------|

c|--------------------------------------------------------------|
G|--13--14--13--17--19--13--------------------------------------|
F|--------------------------------------------------------------|
C|--------------------------------------------------------------|
F|--12--13--12--16--17--12--------------------------------------|
C|--------------------------------------------------------------|


Final, switches up a bit here. 

c|------x------------x------------x------------x--------------x----------x---------|
G|---7--x---7------7-x---7------9-x---9------9-x----9-------2-x---2----2-x---2-----|
F|---5--x---5------6-x---6------7-x---7------8-x----8-------0-x---0----0-x---0-----|
C|------x------------x------------x------------x--------------x----------x---------|
F|-5----x-5----5/6---x-6---6/7----x-7----7/8---x--8---8---0---x-0--0-0---x-0---0-0-|
C|------x------------x------------x------------x--------------x----------x---------|

c|---------------------------x---------x-----------------------|
G|-2---5---2-----2---5-----2-x---2---2-x---2-------------------|
F|-------------------------0-x---0---0-x---0-------------------|
C|---------------------------x---------x-----------------------|
F|-----5---0---------5---0---x-0--0-0--x-0--0------------------|
C|-2----------4--2-----------x---------x-----------------------|

c|------x------------x------------x------------x------------x----------------|
G|---2--x---2-----2--x---2------5-x---5------2-x----2-----2-x---2------------|
F|---0--x---0-----0--x---0------0-x---0------0-x----0-----0-x---0------------|
C|------x------------x------------x------------x------------x----------------|
F|------x------------x-------5----x-5----5-0---x--0---0-----x----------------|
C|-2----x-2---2-2----x-2---2------x------------x--------4---x--4--4----------|(Repeat until end)



************************************

| /   slide up
| \   slide down
| h   hammer-on
| p   pull-off
| ~   vibrato
| +   harmonic
| x   Mute note
| b   Bend
| pb  Pre-bend
| br  Bend release
| pbr Pre-bend release
| brb Bend release bend

************************************
Добавлено: 22.03.2016
Другие материалы по этой песне:
  • Аккорды и текст

Страница создана 22.03.2016
http://primanota.ru/newton-faulkner/human-love-chords.htm
Привет, Гость.
Предлагаем пройти революционный курс по гитаре.
Подарок от PrimaNota.Ru, забирай!