PrimaNota.ru - самый крупный в мире бесплатный архив песенных текстов, аккордов, табулатур и нот


Newsted - Soldierhead - таба, бас-таба, видео

Регистрация Запомнить меня
Войти через:  Facebook Google Twitter Vk Yandex Mail.ru

Newsted - Soldierhead - таба, бас-таба, видео

Печатать
Просмотров: 513
the song is in E flat/ D sharp

E:-----------------|
B:-----------------|
G:-----------------|
D:-----------------|
A:-2--2--2--2------|
E:-0--0--0--0------|

E:--------------------------------------------------------------------------------------------|
B:--------------------------------------------------------------------------------------------|
G:--------------------------------------------------------------------------------------------|
D:--------------------------------------------------------------------------------------------|
A:-------------7---7--------------------------------7---7-------------------------------------|
E:--000000000*---6---000000000*--3-5-6---000000000*---6---000000000*---6-5-3--5-3-1--00000*---|
repeat

E:---------------------------0---------------------|
B:---------------------------0---------------------|
G:-------------------------------------------------|
D:-------------------------------------------------|repeat
A:-------------------------------------------------|
E:--0000000*--6-5-3-5-3-1-0-----6-5-3-5-3-1-3------|


bridge
E:-----------------------------------------------------------------|
B:-----------------------------------------------------------------|
G:-----------------------------------------------------------------|
D:-----------------------------------------7-----------------------|repeat
A:----5-7-------5-7------5-7------5-7------5-----------------------|
E:--0-----0---0-----0--0-----0--0-----0----------------------------|



E:----------------------------------|
B:----------------------------------|
G:----------------------------------| repeat
D:-------5------7------8------------|
A:-----7------7------7------5-6-----|
E:---0------0------0------0---------|


E:-------------------------------|
B:-------------------------------|
G:-------------------------------|
D:--9-----9--10-9----------------|repeat
A:--7--8--7--8--7--8--7--5-------|
E:-----6-----------6--5--3-------|
Добавлено: 01.11.2013
Другие материалы по этой песне:

Страница создана 01.07.2013
http://primanota.ru/newsted/soldierhead-chords.htm
Привет, Гость.
Предлагаем пройти революционный курс по гитаре.
Подарок от PrimaNota.Ru, забирай!