PrimaNota.ru - самый крупный в мире бесплатный архив песенных текстов, аккордов, табулатур и нот


Newsted - As The Crow Flies - таба, видео

Регистрация Запомнить меня
Войти через:  Facebook Google Twitter Vk Yandex Mail.ru

Newsted - As The Crow Flies - таба, видео

Печатать
Просмотров: 96
-------------------------------------------------------------------------------------------------------------
                                   NEWSTED - ...AS THE CROW FLIES
-------------------------------------------------------------------------------------------------------------
**Tabbed by: Adam Bombardier (Québec)**
**e-mail: adam_bombardier@hotmail.com**

As performed by Newsted

[Note: This tab is a work in progress! You're more than welcome to add up stuff to this tab!]


Tuning: D#/G#/C#/F#/A#/d# (Half Step Down)

(Intro) (2X)
|-------------------------------------------------------------|
|-------------------------------------------------------------|
|-------------------------------------------------------------|
|-2----2------------2---------2----2----2---------------------|
|-2----2------------2---------2----2----2---------------------|
|-0-00-0-0000-1-3-1-0------00-0-00-0-00-0-00-3-4-3-1------3-4-|
    ..   ....       [Ring] ..   ..   ..   ..        [Ring]

|-----------------------------------------------------------|
|-----------------------------------------------------------|
|-----------------------------------------------------------|
|-2----2----2----------2---------2----2----2----------------|
|-2----2----2----------2---------2----2----2----8-7-5-5-7-8-|
|-0-00-0-00-0-00-1-3-1-0------00-0-00-0-00-0-00-6-5-3-3-5-6-|
    ..   ..   ..       [Ring] ..   ..   ..   ..        
Добавлено: 16.06.2016
Другие материалы по этой песне:
  • Аккорды и текст

Страница создана 16.06.2016
http://primanota.ru/newsted/as-crow-flies-chords.htm
Привет, Гость.
Предлагаем пройти революционный курс по гитаре.
Подарок от PrimaNota.Ru, забирай!