PrimaNota.ru - самый крупный в мире бесплатный архив песенных текстов, аккордов, табулатур и нот


Newsboys - Going Public - текст песни, таба, бас-таба, видео

Регистрация Запомнить меня
Войти через:  Facebook Google Twitter Vk Yandex Mail.ru

Newsboys - Going Public - текст песни, таба, бас-таба, видео

Печатать
Просмотров: 128
Авторы текста: Steve Taylor
		   Newsboys
Going Public
Music by Peter Furler
Lyrics by Steve Taylor
tab by Jed C
jclgreat@juno.com
members.xoom.com/jclg/jed.html

like Elle G, there is not a lot of guitar parts in this one.  If you have
either of the 2 solos in this song, please email them to me!

Intro Riff 

	 (D)
------------------------------------------------------------------------
------------------------------------------------------------------------
--------7--5--7--5--7--5--7--5------------------------------------------
------------------------------------------------------------------------
------------------------------------------------------------------------
------------------------------------------------------------------------

Verse 2 Riff 2x

     
D5						Bb5			C5
------------------------------------------------------------------------
------------------------------------------------------------------------
-xxxx-7---xxxx-7---xxxx-7---xxxx-7---xxxx-3---xxxx-3---xxxx-5---xxxx-5--
-xxxx-7---xxxx-7---xxxx-7---xxxx-7---xxxx-3---xxxx-3---xxxx-5---xxxx-5--
-xxxx-5---xxxx-5---xxxx-5---xxxx-5---xxxx-1---xxxx-1---xxxx-3---xxxx-3--
------------------------------------------------------------------------

she's been dazed and induced
wants a part-time God
for her private use
but she won't take a stand
'cause she might get tagged
as a closet Jesus fan

SIGN ON
THE TIME IS DRAWING NEAR
THIS IS SURELY A BANNER YEAR
TO BE A PUBLIC WITNESS
SIGN ON
THE LINES ARE DRAWN AND CLEAR
THERE'S NO STRADDLING FENCES HERE
WE'RE GOING PUBLIC WITH THIS

he's displaced and unglued
scared that faith in God
could be misconstrued
but the cross makes him wish
that his spine was more
than a school of jellyfish
     
Добавлено: 21.10.2013
Другие материалы по этой песне:
  • Аккорды и текст

Страница создана 08.03.2012
http://primanota.ru/newsboys/going-public-chords.htm
Привет, Гость.
Предлагаем пройти революционный курс по гитаре.
Подарок от PrimaNota.Ru, забирай!