PrimaNota.ru - самый крупный в мире бесплатный архив песенных текстов, аккордов, табулатур и нот


Newsboys - Breakfast live - таба, видео

Регистрация Запомнить меня
Войти через:  Facebook Google Twitter Vk Yandex Mail.ru

Newsboys - Breakfast live - таба, видео

Печатать
Просмотров: 85
Уроки эстрадного вокала в Санкт-Петербурге


Intro
e-----------------
B-----------------
G---4--4--4--9-9-
D--2--2--2-27--7--
A-----------------
E-----------------

Verse

e--------------------------------
B--------------------------------
G-------------------4--4---------
D---6--6--6--6--6--2--2---4--4--4
A--4--4--4--4--4---------2--2--2-
E--------------------------------

Verse

e--------------------------------
B--------------------------------
G---6--6--6--6--6---------9--9--9
D--4--4--4--4--4---9--9--7--7--7-
A-----------------7--7-----------
E--------------------------------


Chorus:
D  A  F#m  A
D  A  E
D  A  F#m  A
D  A  E


Extra part with wah pedal:
E  A  C#m  D   x4


Other extra part where Phil is talking:
e--------------------------------
B--------------------------------
G--------------------------------
D--------------------------------
A-7-5-7-57-57-4-5----------------
E--------------------------------

e--------------------------------
B--------------------------------
G--------------------------------
D--------------------------------
A-7-5-7-57-57-10-----------------
E--------------------------------


im pretty sure this is right.God Bless :-)

Добавлено: 19.11.2013
Другие материалы по этой песне:
  • Аккорды и текст

Страница создана 19.11.2013
http://primanota.ru/newsboys/breakfast-live-chords.htm
Привет, Гость.
Предлагаем пройти революционный курс по гитаре.
Подарок от PrimaNota.Ru, забирай!