PrimaNota.ru - самый крупный в мире бесплатный архив песенных текстов, аккордов, табулатур и нот


New York Ska Jazz Ensemble - Nintendo Theme Ska Remix - аккорды и текст, видео

Регистрация Запомнить меня
Войти через:  Facebook Google Twitter Vk Yandex Mail.ru

New York Ska Jazz Ensemble - Nintendo Theme Ska Remix - аккорды и текст, видео

Печатать
Просмотров: 120
Уроки эстрадного вокала в Санкт-Петербурге
Nintendo Theme Ska Remix
New York Ska Jazz Ensemble
Title: Nintendo theme ska remix

Band: The New York Ska Jazz Ensemble

Tabbed by: Jeroen Peeters

Mail me: condense13@hotmail.com

I think this sounds correct, but its not exactly right.

I suggest you add some chorus to get that ska-sound^Å

This is all my own work.

 

Intro: trumpet and trombone.

 

Chorus:

    Am       Dm       Am       Dm       Gm       C   

e:--5-5-5-5--5-5-5-5--5-5-5-5--5-5-5-5--3-3-3-3--3-3-3-3--

B:--5-5-5-5--6-6-6-6--5-5-5-5--6-6-6-6--3-3-3-3--5-5-5-5-- 

G:--5-5-5-5--7-7-7-7--5-5-5-5--7-7-7-7--3-3-3-3--5-5-5-5--

D:--7-7-7-7--7-7-7-7--7-7-7-7--7-7-7-7--5-5-5-5--5-5-5-5--

A:--------------------------------------------------------

E:--------------------------------------------------------

 

 

    Am       Dm

e:--5-5-5-5--5-5-5-5--

B:--5-5-5-5--6-6-6-6--

G:--5-5-5-5--7-7-7-7--  

D:--7-7-7-7--7-7-7-7--

A:--------------------

E:--------------------

 

 

Bridge:

    Dm       Am       Dm       Am

e:------5--------5--------5--------555---

B:--666-6----555-5----666-6----555-555---

G:--777-7----555-5----777-7----555-555---    (2x)

D:------7--------7--------7--------777---

A:---------------------------------------

E:---------------------------------------

 

 

Verse:

 

Part 1

    Dm  

e:--5-5-5-5-5-5-5-5\4/5-5-5-5-5-5-5-5\4/5--

B:--6-6-6-6-6-6-6-6\5/6-6-6-6-6-6-6-6\5/6--

G:--7-7-7-7-7-7-7-7\6/7-7-7-7-7-7-7-7\6/7--    (12x)    

D:--7-7-7-7-7-7-7-7\6/7-7-7-7-7-7-7-7\7/7--

A:-----------------------------------------

E:-----------------------------------------

 

 

Part 2

    Am       Dm       Am       Dm

e:--5-5-5-5--5-5-5-5--5-5-5-5--5-5-5-5---

B:--5-5-5-5--6-6-6-6--5-5-5-5--6-6-6-6---

G:--5-5-5-5--7-7-7-7--5-5-5-5--7-7-7-7---    (4x)

D:--7-7-7-7--7-7-7-7--7-7-7-7--7-7-7-7---

A:---------------------------------------

E:---------------------------------------

 

 

 

Intro

Chorus 1x

Bridge 2x

Chorus 2x

Bridge 2x

Chorus 1x

Verse  part 1  12x

       Part 2  4x

       Part 1  12x

       Part 2  4x

       Part 1  ^Å

     
Добавлено: 22.10.2013
Другие материалы по этой песне:
  • Аккорды и текст

Страница создана 22.10.2013
http://primanota.ru/new-york-ska-jazz-ensemble/nintendo-theme-ska-remix-chords.htm
Привет, Гость.
Предлагаем пройти революционный курс по гитаре.
Подарок от PrimaNota.Ru, забирай!