PrimaNota.ru - самый крупный в мире бесплатный архив песенных текстов, аккордов, табулатур и нот


New York Dolls - Personality Crisis - аккорды и текст, таба, бас-таба, видео

Регистрация Запомнить меня
Войти через:  Facebook Google Twitter Vk Yandex Mail.ru

New York Dolls - Personality Crisis - аккорды и текст, таба, бас-таба, видео

Печатать
Просмотров: 202
Авторы: Johnny Thunders, David Johansen

Personality Crisis
New York Dolls
PERSONALITY CRISIS

As recorded by New York Dolls
(From the 1973 Album NEW YORK DOLLS)

Words and Music by David Johansen & Johnny Thunders

Transcribed by Slowhand


Gtr I (E A D G B E) - 'Johnny Thunders - Electric Guitar'
Gtr II (E A D G B E) - 'Sylvain Sylvain - Electric Guitar'


 Intro
  Q=154
            C5                D5                  G5
 4/4
  Gtr I
  H    Q  E E   +E  E Q  Q  E E   +E  E E E E E E E   +E  E E E Q  E E
|-------------|-----------------|-------------------|------------------|
|-------------|-----------------|-------------------|------------------|
|-------------|-----------------|-------------------|------------------|
|-----------5-|-(5)-5-7--5--5-7-|-(7)-7-9-7-7-7-----|------------------|
|-----------3-|-(3)-3-3--3--3-5-|-(5)-5-5-5-5-5---5-|-(5)-5-7-5-5--7-5-|
|-------------|-----------------|---------------0-3-|-(3)-3-3-3-3--3-3-|


      G                 C
  +E  E  Q  E   Q   E   +E  E  E    E  E  E  E     E
|-------------------8-|-(8)-8----------8--8-------10-|
|-------------------8-|-(8)-8-------8--8--8-------10-|
|---------------------|-------10b12---------12b14----|
|---------------------|------------------------------|
|-(5)-5--7--5-/10-----|------------------------------|
|-(3)-3--3--3---------|------------------------------|
|
| Gtr II
|  E  Q.    Q     E E    Q     E    E +E  E  E     E
|-----3-----3-----3-x-|------------------------------|
|-----3-----3-----3-x-|--5-----5----6-(6)-5--5-----x-|
|-----4-----4-----4-x-|--5-----5----5-(5)-5--5-----x-|
|-----5-----5-----5-x-|--5-----5----5-(5)-5--5-----x-|
|-----5-----5-----5-x-|--3-----3----3-(3)-3--3-----x-|
|-----3-----3-----3-x-|------------------------------|


  D                                      G
   +E   E     E  E  S     +S   E  E  E    +W
|-(10)----------10---------------------|------------------|
|-(10)-------10-10------------------12-|-(12)-------------|
|------12b14-------12b14r(12)-10----12-|-(12)-------------|
|--------------------------------12-12-|-(12)-------------|
|-----------------------------------10-|-(10)-------------|
|--------------------------------------|------------------|
|
|   E   E     Q     E          E  E  E     E  E Q  Q  E E
|--------------------------------------|------------------|
|---7---7-----8-----8----------7--7--x-|------------------|
|---7---7-----7-----7----------7--7--x-|------------------|
|---7---7-----7-----7----------7--7--x-|------------------|
|---5---5-----5-----5----------5--5--x-|---5--5-7--5--7-5-|
|--------------------------------------|---3--3-3--3--3-3-|


                           C
   +E   E  Q   E  E  Q     H      +E  E Q
|------------------------|------------------|
|-(12)-------------------|------------------|
|-(12)-------------------|-5------(5)-5s7---|
|-(12)--------12-12-12---|-5------(5)-5s7---|
|-(10)----12--12-12-12---|-3------(3)-3s5---|
|------10-12--10-10-10---|------------------|
|
|  +E   E  Q   E  E  E E   Q.   E +E  E E E
|------------------------|------------------|
|------------------------|-5----6-(6)-5-5-x-|
|------------------------|-5----5-(5)-5-5-x-|
|------------------------|-5----5-(5)-5-5-x-|
|--(5)--5--7---5--5--5-x-|-3----3-(3)-3-3-x-|
|--(3)--3--3---3--3--3-x-|------------------|


  D                       G
  H      +E  a  E  E  E    Q    Q   E  E  E  E
|-----------------------|----------------------|
|-----------------12-12-|-12---12--12-12-12-12-|
|-7------(7)------12-12-|-12---12--12-12-12-12-|
|-7------(7)------12-12-|-12---12--12-12-12-12-|
|-5------(5)-6s10-10-10-|-10---10--10-10-10-10-|
|-----------------------|----------------------|
|
| E E Q   E     E  E  E    E E  Q   Q     E  E
|-----------------------|----------------------|
|-7-7-8---8-----7--7--x-|----------------------|
|-7-7-7---7-----7--7--x-|----------------------|
|-7-7-7---7-----7--7--x-|----------------------|
|-5-5-5---5-----5--5--x-|--5-5--7---5-----7--5-|
|-----------------------|--3-3--3---3-----3--3-|


                        C
   +E   Q.    E E E E    E    E E  E     E  E  E     E
|---------------8-8-8-|---------8-----------8-------10-|
|-(12)----------8-8-8-|-------8-8--------8--8-------10-|
|-(12)----------------|-10b12-----10b12-------12b14----|
|-(12)----------------|--------------------------------|
|-(10)-10-------------|--------------------------------|
|---------------------|--------------------------------|
|
|  +E   E  Q  E E E E    E    E E  E    +E  E  E     E
|---------------------|--------------------------------|
|---------------------|--5----5-5--6----(6)-5--5-----x-|
|---------------------|--5----5-5--5----(5)-5--5-----x-|
|---------------------|--5----5-5--5----(5)-5--5-----x-|
|--(5)--5--7--5-5-5-x-|--3----3-3--3----(3)-3--3-----x-|
|--(3)--3--3--3-3-3-x-|--------------------------------|


  D                                      G
   +E   E     E  E  S     +S   E  E  E    +W                   +H         +E   E  E E
|-(10)----------10---------------------|--------------------|---------------------------||
|-(10)-------10-10------------------12-|-(12)---------------|-(12)-------(12)-12-12-x---||
|------12b14-------12b14r(12)-10----12-|-(12)---------------|-(12)-------(12)-12-12-x---||
|--------------------------------12-12-|-(12)---------------|-(12)-------(12)-12-12-x---||
|-----------------------------------10-|-(10)---------------|-(10)-------(10)-10-10-x---||
|--------------------------------------|--------------------|---------------------------||
|
|   E   E     Q     E          E  E  E     E  E E E E E E E     E  E E E   E   E  E E
|--------------------------------------|--------------------|---------------------------||
|---7---7-----8-----8----------7--7--x-|--------------------|---------------------------||
|---7---7-----7-----7----------7--7--x-|--------------------|---------------------------||
|---7---7-----7-----7----------7--7--x-|--------------------|---------------------------||
|---5---5-----5-----5----------5--5--x-|---5--5-----5-5-----|---5----5-----5---5--------||
|--------------------------------------|---3--3---0-3-3---0-|---3--0-3-0---3---3----0---||


 1st Verse
  G
   H.           E  E    H.           Q
|--------------------|-------------------|
|-12--------------12-|-12----------------|
|-12--------------12-|-12----------------|
|-12--------------12-|-12----------------|
|-10--------------10-|-10----------------|
|--------------------|-------------------|
|
|  E  E E E E E E  E    E  E E E E E E E
|--------------------|-------------------|
|--------------------|-------------------|
|--------------------|-------------------|
|--------------------|-------------------|
|--5----5---5-5------|--5----5---5-5-----|
|--3--0-3-0-3-3----0-|--3--0-3-0-3-3---0-|


   a  Q    E  E  +E   E  E  E    E  E  E  E  E  E  E E
|-----------------------------|------------------------|
|-----------------------------|-------------12-12-12-x-|
|---------10---------10----10-|----10----10-12-12-12-x-|
|-----------------------------|-------------12-12-12-x-|
|-10s12------12-(12)----12----|-12----12----10-10-10-x-|
|-----------------------------|------------------------|
|
|     E E  E  E   E   E  E  E    E  E  E  E  E  E  E E
|-----------------------------|------------------------|
|-----------------------------|------------------------|
|-----------------------------|------------------------|
|-----------------------------|------------------------|
|-----5-5---------5---5-------|--5-----5-----5--5------|
|-----3-3-----0---3---3-----0-|--3--0--3--0--3--3----0-|


  C                  D
  H      +E  E E E   H      +E  E E E
|------------------|------------------|
|------------------|------------------|
|-5------(5)-5-5-x-|-7------(7)-7-7-x-|
|-5------(5)-5-5-x-|-7------(7)-7-7-x-|
|-3------(3)-3-3-x-|-5------(5)-5-5-x-|
|------------------|------------------|
|
| Q  E E +E  E E E   E E Q   E  E E E
|------------------|------------------|
|-5--5-6-(6)-5-5-x-|-7-7-8---8--7-7-x-|
|-5--5-5-(5)-5-5-x-|-7-7-7---7--7-7-x-|
|-5--5-5-(5)-5-5-x-|-7-7-7---7--7-7-x-|
|-3--3-3-(3)-3-3-x-|-5-5-5---5--5-5-x-|
|------------------|------------------|


  G
   Q    Q   Q   E  a  E    +E   E  E  E  E  E  E E
|-----------------------|--------------------------||
|-----------------------|---------------12-12-12-x-||
|-12---12--12--12-------|------10----10-12-12-12-x-||
|-12---12--12--12-------|---------------12-12-12-x-||
|-10---10--10--10-10s12-|-(12)----12----10-10-10-x-||
|-----------------------|--------------------------||
|
|  E E  Q   Q   E     E    +E   E  Q     E  E  E E
|-----------------------|--------------------------||
|-----------------------|--------------------------||
|-----------------------|--------------------------||
|-----------------------|--------------------------||
|--5-5--7---5---7-----5-|--(5)--5--7-----5--5--5-x-||
|--3-3--3---3---3-----3-|--(3)--3--3-----3--3--3-x-||


 Chorus
  $
  C                   D
  E E Q    Q    E E   +E  E E E E E E E
|-------------------|-------------------|
|-------------------|-------------------|
|-------------------|-------------------|
|-5-5-7----5----5-7-|-(7)-7-9-7-7-7-----|
|-3-3-3----3----3-5-|-(5)-5-5-5-5-5---5-|
|-------------------|---------------0-3-|
|
| Q   E E +E  E E E    E  E Q   E E E E
|-------------------|-------------------|
|-5---5-6-(6)-5-5-x-|--7--7-8---8-7-7-x-|
|-5---5-5-(5)-5-5-x-|--7--7-7---7-7-7-x-|
|-5---5-5-(5)-5-5-x-|--7--7-7---7-7-7-x-|
|-3---3-3-(3)-3-3-x-|--5--5-5---5-5-5-x-|
|-------------------|-------------------|


  G
  +E  E E E Q  E E    E  E Q  E   Q   E
|------------------|------------------8-|
|------------------|------------------8-|
|------------------|--------------------|
|------------------|--------------------|
|-(5)-5-7-5-5--7-5-|--5--5-7--5-/10-----|
|-(3)-3-3-3-3--3-3-|--3--3-3--3---------|
|
|  E  E Q   Q  E E   +E  E Q  E   E E E
|------------------|--------------------|
|------------------|--------------------|
|------------------|--------------------|
|------------------|--------------------|
|--5--5-7---5--7-5-|-(5)-5-7--5---5-5-x-|
|--3--3-3---3--3-3-|-(3)-3-3--3---3-3-x-|


  C                              D
  +E  E  E    E  E  E  E     E    +E   E     E  E  S     +S   E  E  E
|-(8)-8----------8--8-------10-|-(10)----------10---------------------|
|-(8)-8-------8--8--8-------10-|-(10)-------10-10------------------12-|
|-------10b12---------12b14----|------12b14-------12b14r(12)-10----12-|
|------------------------------|--------------------------------12-12-|
|------------------------------|-----------------------------------10-|
|------------------------------|--------------------------------------|
|
|  Q     E    E +E  E  E     E     E   E     Q     E          E  E  E
|------------------------------|--------------------------------------|
|--5-----5----6-(6)-5--5-----x-|---7---7-----8-----8----------7--7--x-|
|--5-----5----5-(5)-5--5-----x-|---7---7-----7-----7----------7--7--x-|
|--5-----5----5-(5)-5--5-----x-|---7---7-----7-----7----------7--7--x-|
|--3-----3----3-(3)-3--3-----x-|---5---5-----5-----5----------5--5--x-|
|------------------------------|--------------------------------------|


  G
   +W                 +E   E  Q   E  E  Q
|------------------|------------------------|
|-(12)-------------|-(12)-------------------|
|-(12)-------------|-(12)-------------------|
|-(12)-------------|-(12)--------12-12-12---|
|-(10)-------------|-(10)----12--12-12-12---|
|------------------|------10-12--10-10-10---|
|
|   E  E Q  Q  E E    +E   E  Q   E  E  E E
|------------------|------------------------|
|------------------|------------------------|
|------------------|------------------------|
|------------------|------------------------|
|---5--5-7--5--7-5-|--(5)--5--7---5--5--5-x-|
|---3--3-3--3--3-3-|--(3)--3--3---3--3--3-x-|


  C                  D
  H      +E  E Q     H      +E  a  E  E  E
|------------------|-----------------------|
|------------------|-----------------12-12-|
|-5------(5)-5s7---|-7------(7)------12-12-|
|-5------(5)-5s7---|-7------(7)------12-12-|
|-3------(3)-3s5---|-5------(5)-6s10-10-10-|
|------------------|-----------------------|
|
| Q  E E +E  E E E   E E Q   E     E  E  E
|------------------|-----------------------|
|-5--5-6-(6)-5-5-x-|-7-7-8---8-----7--7--x-|
|-5--5-5-(5)-5-5-x-|-7-7-7---7-----7--7--x-|
|-5--5-5-(5)-5-5-x-|-7-7-7---7-----7--7--x-|
|-3--3-3-(3)-3-3-x-|-5-5-5---5-----5--5--x-|
|------------------|-----------------------|


  G
   Q    Q   E  E  E  E    +E   Q.    E E E E
|----------------------|---------------8-8-8-|
|-12---12--12-12-12-12-|-(12)----------8-8-8-|
|-12---12--12-12-12-12-|-(12)----------------|
|-12---12--12-12-12-12-|-(12)----------------|
|-10---10--10-10-10-10-|-(10)-10-------------|
|----------------------|---------------------|
|
|  E E  Q   Q     E  E    +E   E  Q  E E E E
|----------------------|---------------------|
|----------------------|---------------------|
|----------------------|---------------------|
|----------------------|---------------------|
|--5-5--7---5-----7--5-|--(5)--5--7--5-5-5-x-|
|--3-3--3---3-----3--3-|--(3)--3--3--3-3-3-x-|


  C                                D
   E    E E  E     E  E  E     E    +E   E     E  E  S     +S   E  E  E
|---------8-----------8-------10-|-(10)----------10---------------------|
|-------8-8--------8--8-------10-|-(10)-------10-10------------------12-|
|-10b12-----10b12-------12b14----|------12b14-------12b14r(12)-10----12-|
|--------------------------------|--------------------------------12-12-|
|--------------------------------|-----------------------------------10-|
|--------------------------------|--------------------------------------|
|
|  Q      E  E    +E  E  E     E     E   E     Q     E          E  E  E
|--------------------------------|--------------------------------------|
|--5------5--6----(6)-5--5-----x-|---7---7-----8-----8----------7--7--x-|
|--5------5--5----(5)-5--5-----x-|---7---7-----7-----7----------7--7--x-|
|--5------5--5----(5)-5--5-----x-|---7---7-----7-----7----------7--7--x-|
|--3------3--3----(3)-3--3-----x-|---5---5-----5-----5----------5--5--x-|
|--------------------------------|--------------------------------------|


  G
   +W                 +H        +E   E  E E
|------------------|------------------------||
|-(12)-------------|-(12)------(12)-12-12-x-||
|-(12)-------------|-(12)------(12)-12-12-x-||
|-(12)-------------|-(12)------(12)-12-12-x-||
|-(10)-------------|-(10)------(10)-10-10-x-||
|------------------|------------------------||
|
|   E  E Q  Q  E E    +E  E Q    E   E  E E
|------------------|------------------------||
|------------------|------------------------||
|------------------|------------------------||
|------------------|------------------------||
|---5--5-7--5--7-5-|--(5)-5-7----5---5--5-x-||
|---3--3-3--3--3-3-|--(3)-3-3----3---3--3-x-||


 2nd & 4th Verses
  G
   H.           E  E    H.           Q
|--------------------|-------------------|
|-12--------------12-|-12----------------|
|-12--------------12-|-12----------------|
|-12--------------12-|-12----------------|
|-10--------------10-|-10----------------|
|--------------------|-------------------|
|
|  E  E E E E E E  E    E  E E E E E E E
|--------------------|-------------------|
|--------------------|-------------------|
|--------------------|-------------------|
|--------------------|-------------------|
|--5----5---5-5------|--5----5---5-5-----|
|--3--0-3-0-3-3----0-|--3--0-3-0-3-3---0-|


   a  Q    E  E  +E   E  E  E    E  E  E  E  E  E  E E
|-----------------------------|------------------------|
|-----------------------------|-------------12-12-12-x-|
|---------10---------10----10-|----10----10-12-12-12-x-|
|-----------------------------|-------------12-12-12-x-|
|-10s12------12-(12)----12----|-12----12----10-10-10-x-|
|-----------------------------|------------------------|
|
|     E E  E  E   E   E  E  E    E  E  E  E  E  E  E E
|-----------------------------|------------------------|
|-----------------------------|------------------------|
|-----------------------------|------------------------|
|-----------------------------|------------------------|
|-----5-5---------5---5-------|--5-----5-----5--5------|
|-----3-3-----0---3---3-----0-|--3--0--3--0--3--3----0-|


  C                  D
  H      +E  E E E   H      +E  E E E
|------------------|------------------|
|------------------|------------------|
|-5------(5)-5-5-x-|-7------(7)-7-7-x-|
|-5------(5)-5-5-x-|-7------(7)-7-7-x-|
|-3------(3)-3-3-x-|-5------(5)-5-5-x-|
|------------------|------------------|
|
| Q  E E +E  E E E   E E Q   E  E E E
|------------------|------------------|
|-5--5-6-(6)-5-5-x-|-7-7-8---8--7-7-x-|
|-5--5-5-(5)-5-5-x-|-7-7-7---7--7-7-x-|
|-5--5-5-(5)-5-5-x-|-7-7-7---7--7-7-x-|
|-3--3-3-(3)-3-3-x-|-5-5-5---5--5-5-x-|
|------------------|------------------|


  G
   Q    Q   Q   E  a  E    +E   E  E  E  E  E  E E
|-----------------------|--------------------------|
|-----------------------|---------------12-12-12-x-|
|-12---12--12--12-------|------10----10-12-12-12-x-|
|-12---12--12--12-------|---------------12-12-12-x-|
|-10---10--10--10-10s12-|-(12)----12----10-10-10-x-|
|-----------------------|--------------------------|
|
|  E E  Q   Q   E     E    +E   E  Q     E  E  E E
|-----------------------|--------------------------|
|-----------------------|--------------------------|
|-----------------------|--------------------------|
|-----------------------|--------------------------|
|--5-5--7---5---7-----5-|--(5)--5--7-----5--5--5-x-|
|--3-3--3---3---3-----3-|--(3)--3--3-----3--3--3-x-|


  G
   H.           E  E    H.           Q
|--------------------|-------------------|
|-12--------------12-|-12----------------|
|-12--------------12-|-12----------------|
|-12--------------12-|-12----------------|
|-10--------------10-|-10----------------|
|--------------------|-------------------|
|
|  E  E E E E E E  E    E  E E E E E E E
|--------------------|-------------------|
|--------------------|-------------------|
|--------------------|-------------------|
|--------------------|-------------------|
|--5----5---5-5------|--5----5---5-5-----|
|--3--0-3-0-3-3----0-|--3--0-3-0-3-3---0-|


   a  Q    E  E  +E   E  E  E    E  E  E  E  E  E  E E
|-----------------------------|------------------------|
|-----------------------------|-------------12-12-12-x-|
|---------10---------10----10-|----10----10-12-12-12-x-|
|-----------------------------|-------------12-12-12-x-|
|-10s12------12-(12)----12----|-12----12----10-10-10-x-|
|-----------------------------|------------------------|
|
|     E E  E  E   E   E  E  E    E  E  E  E  E  E  E E
|-----------------------------|------------------------|
|-----------------------------|------------------------|
|-----------------------------|------------------------|
|-----------------------------|------------------------|
|-----5-5---------5---5-------|--5-----5-----5--5------|
|-----3-3-----0---3---3-----0-|--3--0--3--0--3--3----0-|


  C                  D
  H      +E  E E E   H      +E  E E E
|------------------|------------------|
|------------------|------------------|
|-5------(5)-5-5-x-|-7------(7)-7-7-x-|
|-5------(5)-5-5-x-|-7------(7)-7-7-x-|
|-3------(3)-3-3-x-|-5------(5)-5-5-x-|
|------------------|------------------|
|
| Q  E E +E  E E E   E E Q   E  E E E
|------------------|------------------|
|-5--5-6-(6)-5-5-x-|-7-7-8---8--7-7-x-|
|-5--5-5-(5)-5-5-x-|-7-7-7---7--7-7-x-|
|-5--5-5-(5)-5-5-x-|-7-7-7---7--7-7-x-|
|-3--3-3-(3)-3-3-x-|-5-5-5---5--5-5-x-|
|------------------|------------------|


                 To Coda
  G
   Q    Q   Q   E  a  E     +E   E  E  E  E  E  E E
|------------------------|----------------------------||
|------------------------|---------------12-12-12-x---||
|-12---12--12--12--------|------10----10-12-12-12-x---||
|-12---12--12--12--------|---------------12-12-12-x---||
|-10---10--10--10-10s12--|-(12)----12----10-10-10-x---||
|------------------------|----------------------------||
|
|  E E  Q   Q   E     E     +E   E  Q     E  E  E E
|------------------------|----------------------------||
|------------------------|----------------------------||
|------------------------|----------------------------||
|------------------------|----------------------------||
|--5-5--7---5---7-----5--|--(5)--5--7-----5--5--5-x---||
|--3-3--3---3---3-----3--|--(3)--3--3-----3--3--3-x---||


 Chorus
  C                   D
  E E Q    Q    E E   +E  E E E E E E E
|-------------------|-------------------|
|-------------------|-------------------|
|-------------------|-------------------|
|-5-5-7----5----5-7-|-(7)-7-9-7-7-7-----|
|-3-3-3----3----3-5-|-(5)-5-5-5-5-5---5-|
|-------------------|---------------0-3-|
|
| Q   E E +E  E E E    E  E Q   E E E E
|-------------------|-------------------|
|-5---5-6-(6)-5-5-x-|--7--7-8---8-7-7-x-|
|-5---5-5-(5)-5-5-x-|--7--7-7---7-7-7-x-|
|-5---5-5-(5)-5-5-x-|--7--7-7---7-7-7-x-|
|-3---3-3-(3)-3-3-x-|--5--5-5---5-5-5-x-|
|-------------------|-------------------|


  G
  +E  E E E Q  E E    E  E Q  E   Q   E
|------------------|------------------8-|
|------------------|------------------8-|
|------------------|--------------------|
|------------------|--------------------|
|-(5)-5-7-5-5--7-5-|--5--5-7--5-/10-----|
|-(3)-3-3-3-3--3-3-|--3--3-3--3---------|
|
|  E  E Q   Q  E E   +E  E Q  E   E E E
|------------------|--------------------|
|------------------|--------------------|
|------------------|--------------------|
|------------------|--------------------|
|--5--5-7---5--7-5-|-(5)-5-7--5---5-5-x-|
|--3--3-3---3--3-3-|-(3)-3-3--3---3-3-x-|


  C                              D
  +E  E  E    E  E  E  E     E    +E   E     E  E  S     +S   E  E  E
|-(8)-8----------8--8-------10-|-(10)----------10---------------------|
|-(8)-8-------8--8--8-------10-|-(10)-------10-10------------------12-|
|-------10b12---------12b14----|------12b14-------12b14r(12)-10----12-|
|------------------------------|--------------------------------12-12-|
|------------------------------|-----------------------------------10-|
|------------------------------|--------------------------------------|
|
|  Q     E    E +E  E  E     E     E   E     Q     E          E  E  E
|------------------------------|--------------------------------------|
|--5-----5----6-(6)-5--5-----x-|---7---7-----8-----8----------7--7--x-|
|--5-----5----5-(5)-5--5-----x-|---7---7-----7-----7----------7--7--x-|
|--5-----5----5-(5)-5--5-----x-|---7---7-----7-----7----------7--7--x-|
|--3-----3----3-(3)-3--3-----x-|---5---5-----5-----5----------5--5--x-|
|------------------------------|--------------------------------------|


  G
   +W                 +E   E  Q   E  E  Q
|------------------|------------------------|
|-(12)-------------|-(12)-------------------|
|-(12)-------------|-(12)-------------------|
|-(12)-------------|-(12)--------12-12-12---|
|-(10)-------------|-(10)----12--12-12-12---|
|------------------|------10-12--10-10-10---|
|
|   E  E Q  Q  E E    +E   E  Q   E  E  E E
|------------------|------------------------|
|------------------|------------------------|
|------------------|------------------------|
|------------------|------------------------|
|---5--5-7--5--7-5-|--(5)--5--7---5--5--5-x-|
|---3--3-3--3--3-3-|--(3)--3--3---3--3--3-x-|


  C                  D
  H      +E  E Q     H      +E  a  E  E  E
|------------------|-----------------------|
|------------------|-----------------12-12-|
|-5------(5)-5s7---|-7------(7)------12-12-|
|-5------(5)-5s7---|-7------(7)------12-12-|
|-3------(3)-3s5---|-5------(5)-6s10-10-10-|
|------------------|-----------------------|
|
| Q  E E +E  E E E   E E Q   E     E  E  E
|------------------|-----------------------|
|-5--5-6-(6)-5-5-x-|-7-7-8---8-----7--7--x-|
|-5--5-5-(5)-5-5-x-|-7-7-7---7-----7--7--x-|
|-5--5-5-(5)-5-5-x-|-7-7-7---7-----7--7--x-|
|-3--3-3-(3)-3-3-x-|-5-5-5---5-----5--5--x-|
|------------------|-----------------------|


  G
   Q    Q   E  E  E  E    +E   Q.    E E E E
|----------------------|---------------8-8-8-|
|-12---12--12-12-12-12-|-(12)----------8-8-8-|
|-12---12--12-12-12-12-|-(12)----------------|
|-12---12--12-12-12-12-|-(12)----------------|
|-10---10--10-10-10-10-|-(10)-10-------------|
|----------------------|---------------------|
|
|  E E  Q   Q     E  E    +E   E  Q  E E E E
|----------------------|---------------------|
|----------------------|---------------------|
|----------------------|---------------------|
|----------------------|---------------------|
|--5-5--7---5-----7--5-|--(5)--5--7--5-5-5-x-|
|--3-3--3---3-----3--3-|--(3)--3--3--3-3-3-x-|


  C                                D
   E    E E  E     E  E  E     E    +E   E     E  E  S     +S   E  E  E
|---------8-----------8-------10-|-(10)----------10---------------------|
|-------8-8--------8--8-------10-|-(10)-------10-10------------------12-|
|-10b12-----10b12-------12b14----|------12b14-------12b14r(12)-10----12-|
|--------------------------------|--------------------------------12-12-|
|--------------------------------|-----------------------------------10-|
|--------------------------------|--------------------------------------|
|
|  Q      E  E    +E  E  E     E     E   E     Q     E          E  E  E
|--------------------------------|--------------------------------------|
|--5------5--6----(6)-5--5-----x-|---7---7-----8-----8----------7--7--x-|
|--5------5--5----(5)-5--5-----x-|---7---7-----7-----7----------7--7--x-|
|--5------5--5----(5)-5--5-----x-|---7---7-----7-----7----------7--7--x-|
|--3------3--3----(3)-3--3-----x-|---5---5-----5-----5----------5--5--x-|
|--------------------------------|--------------------------------------|


  G
   +W                 +H        +E   E  E E
|------------------|------------------------|
|-(12)-------------|-(12)------(12)-12-12-x-|
|-(12)-------------|-(12)------(12)-12-12-x-|
|-(12)-------------|-(12)------(12)-12-12-x-|
|-(10)-------------|-(10)------(10)-10-10-x-|
|------------------|------------------------|
|
|   E  E Q  Q  E E    +E  E Q    E   E  E E
|------------------|------------------------|
|------------------|------------------------|
|------------------|------------------------|
|------------------|------------------------|
|---5--5-7--5--7-5-|--(5)-5-7----5---5--5-x-|
|---3--3-3--3--3-3-|--(3)-3-3----3---3--3-x-|


  C                   D                   G
  E E Q    Q    E E   +E  E E E E E E E   W          W
|-------------------|-------------------|-3--------|------||
|-------------------|-------------------|-3--------|------||
|-------------------|-------------------|-4--------|------||
|-5-5-7----5----5-7-|-(7)-7-9-7-7-7-----|-5--------|------||
|-3-3-3----3----3-5-|-(5)-5-5-5-5-5---5-|-5--------|------||
|-------------------|---------------0-3-|-3--------|------||
|
| Q   E E +E  E E E    E  E Q   E E E E   W          W
|-------------------|-------------------|-3--------|------||
|-5---5-6-(6)-5-5-x-|--7--7-8---8-7-7-x-|-3--------|------||
|-5---5-5-(5)-5-5-x-|--7--7-7---7-7-7-x-|-4--------|------||
|-5---5-5-(5)-5-5-x-|--7--7-7---7-7-7-x-|-5--------|------||
|-3---3-3-(3)-3-3-x-|--5--5-5---5-5-5-x-|-5--------|------||
|-------------------|-------------------|-3--------|------||


 3rd Verse
  G
   H.           E  E    H.           Q
|--------------------|-------------------|
|-12--------------12-|-12----------------|
|-12--------------12-|-12----------------|
|-12--------------12-|-12----------------|
|-10--------------10-|-10----------------|
|--------------------|-------------------|
|
|  E  E E E E E E  E    E  E E E E E E E
|--------------------|-------------------|
|--------------------|-------------------|
|--------------------|-------------------|
|--------------------|-------------------|
|--5----5---5-5------|--5----5---5-5-----|
|--3--0-3-0-3-3----0-|--3--0-3-0-3-3---0-|


   a  Q    E  E  +E   E  E  E    E  E  E  E  E  E  E E
|-----------------------------|------------------------|
|-----------------------------|-------------12-12-12-x-|
|---------10---------10----10-|----10----10-12-12-12-x-|
|-----------------------------|-------------12-12-12-x-|
|-10s12------12-(12)----12----|-12----12----10-10-10-x-|
|-----------------------------|------------------------|
|
|     E E  E  E   E   E  E  E    E  E  E  E  E  E  E E
|-----------------------------|------------------------|
|-----------------------------|------------------------|
|-----------------------------|------------------------|
|-----------------------------|------------------------|
|-----5-5---------5---5-------|--5-----5-----5--5------|
|-----3-3-----0---3---3-----0-|--3--0--3--0--3--3----0-|


  C                  D
  H      +E  E E E   H      +E  E E E
|------------------|------------------|
|------------------|------------------|
|-5------(5)-5-5-x-|-7------(7)-7-7-x-|
|-5------(5)-5-5-x-|-7------(7)-7-7-x-|
|-3------(3)-3-3-x-|-5------(5)-5-5-x-|
|------------------|------------------|
|
| Q  E E +E  E E E   E E Q   E  E E E
|------------------|------------------|
|-5--5-6-(6)-5-5-x-|-7-7-8---8--7-7-x-|
|-5--5-5-(5)-5-5-x-|-7-7-7---7--7-7-x-|
|-5--5-5-(5)-5-5-x-|-7-7-7---7--7-7-x-|
|-3--3-3-(3)-3-3-x-|-5-5-5---5--5-5-x-|
|------------------|------------------|


                                       D.S. al Coda
  G
   Q    Q   Q   E  a  E    +E   E  E  E  E  E  E E
|-----------------------|-----------------------------||
|-----------------------|---------------12-12-12-x----||
|-12---12--12--12-------|------10----10-12-12-12-x----||
|-12---12--12--12-------|---------------12-12-12-x----||
|-10---10--10--10-10s12-|-(12)----12----10-10-10-x----||
|-----------------------|-----------------------------||
|
|  E E  Q   Q   E     E    +E   E  Q     E  E  E E
|-----------------------|-----------------------------||
|-----------------------|-----------------------------||
|-----------------------|-----------------------------||
|-----------------------|-----------------------------||
|--5-5--7---5---7-----5-|--(5)--5--7-----5--5--5-x----||
|--3-3--3---3---3-----3-|--(3)--3--3-----3--3--3-x----||


  &
  G                        C                  D
   E  E  E  E  E  E  E E   H      +E  E E E   H      +E  E E E
|------------------------|------------------|------------------|
|-------------12-12-12-x-|------------------|------------------|
|----10----10-12-12-12-x-|-5------(5)-5-5-x-|-7------(7)-7-7-x-|
|-------------12-12-12-x-|-5------(5)-5-5-x-|-7------(7)-7-7-x-|
|-12----12----10-10-10-x-|-3------(3)-3-3-x-|-5------(5)-5-5-x-|
|------------------------|------------------|------------------|
|
|  E  E  Q     E  E  E E   Q  E E +E  E E E   E E Q   E  E E E
|------------------------|------------------|------------------|
|------------------------|-5--5-6-(6)-5-5-x-|-7-7-8---8--7-7-x-|
|------------------------|-5--5-5-(5)-5-5-x-|-7-7-7---7--7-7-x-|
|------------------------|-5--5-5-(5)-5-5-x-|-7-7-7---7--7-7-x-|
|--5--5--7-----5--5--5-x-|-3--3-3-(3)-3-3-x-|-5-5-5---5--5-5-x-|
|--3--3--3-----3--3--3-x-|------------------|------------------|


  G
   Q    Q   Q   E  a  E    +E   E  E  E  E  E  E E
|-----------------------|----------------------------||
|-----------------------|---------------12-12-12-x---||
|-12---12--12--12-------|------10----10-12-12-12-x---||
|-12---12--12--12-------|---------------12-12-12-x---||
|-10---10--10--10-10s12-|-(12)----12----10-10-10-x---||
|-----------------------|----------------------------||
|
|  E E  Q   Q   E     E    +E   E  Q     E  E  E E
|-----------------------|----------------------------||
|-----------------------|----------------------------||
|-----------------------|----------------------------||
|-----------------------|----------------------------||
|--5-5--7---5---7-----5-|--(5)--5--7-----5--5--5-x---||
|--3-3--3---3---3-----3-|--(3)--3--3-----3--3--3-x---||


 Out-Chorus
  C                   D
  E E Q    Q    E E   +E  E E E E E E E
|-------------------|-------------------|
|-------------------|-------------------|
|-------------------|-------------------|
|-5-5-7----5----5-7-|-(7)-7-9-7-7-7-----|
|-3-3-3----3----3-5-|-(5)-5-5-5-5-5---5-|
|-------------------|---------------0-3-|
|
| Q   E E +E  E E E    E  E Q   E E E E
|-------------------|-------------------|
|-5---5-6-(6)-5-5-x-|--7--7-8---8-7-7-x-|
|-5---5-5-(5)-5-5-x-|--7--7-7---7-7-7-x-|
|-5---5-5-(5)-5-5-x-|--7--7-7---7-7-7-x-|
|-3---3-3-(3)-3-3-x-|--5--5-5---5-5-5-x-|
|-------------------|-------------------|


  G
  +E  E E E Q  E E    E  E Q  E   Q   E
|------------------|------------------8-|
|------------------|------------------8-|
|------------------|--------------------|
|------------------|--------------------|
|-(5)-5-7-5-5--7-5-|--5--5-7--5-/10-----|
|-(3)-3-3-3-3--3-3-|--3--3-3--3---------|
|
|  E  E Q   Q  E E   +E  E Q  E   E E E
|------------------|--------------------|
|------------------|--------------------|
|------------------|--------------------|
|------------------|--------------------|
|--5--5-7---5--7-5-|-(5)-5-7--5---5-5-x-|
|--3--3-3---3--3-3-|-(3)-3-3--3---3-3-x-|


  C                              D
  +E  E  E    E  E  E  E     E    +E   E     E  E  S     +S   E  E  E
|-(8)-8----------8--8-------10-|-(10)----------10---------------------|
|-(8)-8-------8--8--8-------10-|-(10)-------10-10------------------12-|
|-------10b12---------12b14----|------12b14-------12b14r(12)-10----12-|
|------------------------------|--------------------------------12-12-|
|------------------------------|-----------------------------------10-|
|------------------------------|--------------------------------------|
|
|  Q     E    E +E  E  E     E     E   E     Q     E          E  E  E
|------------------------------|--------------------------------------|
|--5-----5----6-(6)-5--5-----x-|---7---7-----8-----8----------7--7--x-|
|--5-----5----5-(5)-5--5-----x-|---7---7-----7-----7----------7--7--x-|
|--5-----5----5-(5)-5--5-----x-|---7---7-----7-----7----------7--7--x-|
|--3-----3----3-(3)-3--3-----x-|---5---5-----5-----5----------5--5--x-|
|------------------------------|--------------------------------------|


  G
   +W                 +E   E  Q   E  E  Q
|------------------|------------------------|
|-(12)-------------|-(12)-------------------|
|-(12)-------------|-(12)-------------------|
|-(12)-------------|-(12)--------12-12-12---|
|-(10)-------------|-(10)----12--12-12-12---|
|------------------|------10-12--10-10-10---|
|
|   E  E Q  Q  E E    +E   E  Q   E  E  E E
|------------------|------------------------|
|------------------|------------------------|
|------------------|------------------------|
|------------------|------------------------|
|---5--5-7--5--7-5-|--(5)--5--7---5--5--5-x-|
|---3--3-3--3--3-3-|--(3)--3--3---3--3--3-x-|


  C                  D
  H      +E  E Q     H      +E  a  E  E  E
|------------------|-----------------------|
|------------------|-----------------12-12-|
|-5------(5)-5s7---|-7------(7)------12-12-|
|-5------(5)-5s7---|-7------(7)------12-12-|
|-3------(3)-3s5---|-5------(5)-6s10-10-10-|
|------------------|-----------------------|
|
| Q  E E +E  E E E   E E Q   E     E  E  E
|------------------|-----------------------|
|-5--5-6-(6)-5-5-x-|-7-7-8---8-----7--7--x-|
|-5--5-5-(5)-5-5-x-|-7-7-7---7-----7--7--x-|
|-5--5-5-(5)-5-5-x-|-7-7-7---7-----7--7--x-|
|-3--3-3-(3)-3-3-x-|-5-5-5---5-----5--5--x-|
|------------------|-----------------------|


  G
   Q    Q   E  E  E  E    +E   Q.    E E E E
|----------------------|---------------8-8-8-|
|-12---12--12-12-12-12-|-(12)----------8-8-8-|
|-12---12--12-12-12-12-|-(12)----------------|
|-12---12--12-12-12-12-|-(12)----------------|
|-10---10--10-10-10-10-|-(10)-10-------------|
|----------------------|---------------------|
|
|  E E  Q   Q     E  E    +E   E  Q  E E E E
|----------------------|---------------------|
|----------------------|---------------------|
|----------------------|---------------------|
|----------------------|---------------------|
|--5-5--7---5-----7--5-|--(5)--5--7--5-5-5-x-|
|--3-3--3---3-----3--3-|--(3)--3--3--3-3-3-x-|


  C                                D
   E    E E  E     E  E  E     E    +E   E     E  E  S     +S   E  E  E
|---------8-----------8-------10-|-(10)----------10---------------------|
|-------8-8--------8--8-------10-|-(10)-------10-10------------------12-|
|-10b12-----10b12-------12b14----|------12b14-------12b14r(12)-10----12-|
|--------------------------------|--------------------------------12-12-|
|--------------------------------|-----------------------------------10-|
|--------------------------------|--------------------------------------|
|
|  Q      E  E    +E  E  E     E     E   E     Q     E          E  E  E
|--------------------------------|--------------------------------------|
|--5------5--6----(6)-5--5-----x-|---7---7-----8-----8----------7--7--x-|
|--5------5--5----(5)-5--5-----x-|---7---7-----7-----7----------7--7--x-|
|--5------5--5----(5)-5--5-----x-|---7---7-----7-----7----------7--7--x-|
|--3------3--3----(3)-3--3-----x-|---5---5-----5-----5----------5--5--x-|
|--------------------------------|--------------------------------------|


  G
   +W                 +H        +E   E  E E
|------------------|------------------------|
|-(12)-------------|-(12)------(12)-12-12-x-|
|-(12)-------------|-(12)------(12)-12-12-x-|
|-(12)-------------|-(12)------(12)-12-12-x-|
|-(10)-------------|-(10)------(10)-10-10-x-|
|------------------|------------------------|
|
|   E  E Q  Q  E E    +E  E Q    E   E  E E
|------------------|------------------------|
|------------------|------------------------|
|------------------|------------------------|
|------------------|------------------------|
|---5--5-7--5--7-5-|--(5)-5-7----5---5--5-x-|
|---3--3-3--3--3-3-|--(3)-3-3----3---3--3-x-|


                    H.=H
  C                   D                   G
  E E Q    Q    E E   +E  E E E E E E E   W          q  Q  H
|-------------------|-------------------|-3--------|-3----------*|
|-------------------|-------------------|-3--------|-3----------*|
|-------------------|-------------------|-4--------|-4----------*|
|-5-5-7----5----5-7-|-(7)-7-9-7-7-7-----|-5--------|-5----------*|
|-3-3-3----3----3-5-|-(5)-5-5-5-5-5---5-|-5--------|-5----------*|
|-------------------|---------------0-3-|-3--------|-3----------*|
|
| Q   E E +E  E E E    E  E Q   E E E E   W          q  Q  H
|-------------------|-------------------|-3--------|-3----------*|
|-5---5-6-(6)-5-5-x-|--7--7-8---8-7-7-x-|-3--------|-3----------*|
|-5---5-5-(5)-5-5-x-|--7--7-7---7-7-7-x-|-4--------|-4----------*|
|-5---5-5-(5)-5-5-x-|--7--7-7---7-7-7-x-|-5--------|-5----------*|
|-3---3-3-(3)-3-3-x-|--5--5-5---5-5-5-x-|-5--------|-5----------*|
|-------------------|-------------------|-3--------|-3----------*|


Duration Legend
---------------
W - whole; H - half; Q - quarter; E - 8th; S - 16th; T - 32nd; X - 64th; a - acciaccatura
+ - note tied to previous; . - note dotted; .. - note double dotted
Uncapitalized letters represent notes that are staccato (1/2 duration)
Irregular groupings are notated above the duration line
Duration letters will always appear directly above the note/fret number it represents the
duration for.  Duration letters with no fret number below them represent rests.  Multi-
bar rests are notated in the form Wxn, where n is the number of bars to rest for.  Low
melody durations appear below the staff

Tablature Legend
----------------
 h   - hammer-on
 p   - pull-off
 b   - bend
 pb  - pre-bend
 r   - bend release (if no number after the r, then release immediately)
 /\  - slide into or out of (from/to "nowhere")
 s   - legato slide
 S   - shift slide
  - natural harmonic
[n]  - artificial harmonic
n(n) - tapped harmonic
 ~   - vibrato
 tr  - trill
 T   - tap
 TP  - trem. picking
 PM  - palm muting
\n/  - tremolo bar dip; n = amount to dip
 \n  - tremolo bar down
 n/  - tremolo bar up
/n\  - tremolo bar inverted dip
 =   - hold bend; also acts as connecting device for hammers/pulls
   - volume swell (louder/softer)
 x   - on rhythm slash represents muted slash
 o   - on rhythm slash represents single note slash

Misc Legend
-----------
 |  - bar
||  - double bar
||o - repeat start
o|| - repeat end
*|  - double bar (ending)
 :  - bar (freetime)
 $  - Segno
 &  - Coda
Tempo markers -  = BPM(8/16=s8/s16), where s8 = swing 8ths, s16 = swing 16ths
Добавлено: 31.07.2015
Другие материалы по этой песне:

Страница создана 19.03.2012
http://primanota.ru/new-york-dolls/personality-crisis-chords.htm
Привет, Гость.
Предлагаем пройти революционный курс по гитаре.
Подарок от PrimaNota.Ru, забирай!